  0
SECTION
  2
HEADER
  9
$ACADVER
  1
AC1015
  9
$ACADMAINTVER
 70
     6
  9
$DWGCODEPAGE
  3
ANSI_1254
  9
$INSBASE
 10
0.0
 20
0.0
 30
0.0
  9
$EXTMIN
 10
0.0
 20
0.0
 30
0.0
  9
$EXTMAX
 10
279.4
 20
215.9
 30
0.0
  9
$LIMMIN
 10
0.0
 20
0.0
  9
$LIMMAX
 10
279.4
 20
215.9
  9
$ORTHOMODE
 70
     0
  9
$REGENMODE
 70
     1
  9
$FILLMODE
 70
     1
  9
$QTEXTMODE
 70
     0
  9
$MIRRTEXT
 70
     1
  9
$LTSCALE
 40
1.0
  9
$ATTMODE
 70
     1
  9
$TEXTSIZE
 40
3.5
  9
$TRACEWID
 40
1.0
  9
$TEXTSTYLE
  7
Standard
  9
$CLAYER
  8
0
  9
$CELTYPE
  6
ByLayer
  9
$CECOLOR
 62
   256
  9
$CELTSCALE
 40
1.0
  9
$DISPSILH
 70
     0
  9
$DIMSCALE
 40
1.0
  9
$DIMASZ
 40
3.5
  9
$DIMEXO
 40
1.0
  9
$DIMDLI
 40
3.75
  9
$DIMRND
 40
0.0
  9
$DIMDLE
 40
0.0
  9
$DIMEXE
 40
1.0
  9
$DIMTP
 40
0.0
  9
$DIMTM
 40
0.0
  9
$DIMTXT
 40
3.5
  9
$DIMCEN
 40
2.5
  9
$DIMTSZ
 40
0.0
  9
$DIMTOL
 70
     0
  9
$DIMLIM
 70
     0
  9
$DIMTIH
 70
     1
  9
$DIMTOH
 70
     1
  9
$DIMSE1
 70
     0
  9
$DIMSE2
 70
     0
  9
$DIMTAD
 70
     1
  9
$DIMZIN
 70
     0
  9
$DIMBLK
  1

  9
$DIMASO
 70
     1
  9
$DIMSHO
 70
     1
  9
$DIMPOST
  1

  9
$DIMAPOST
  1

  9
$DIMALT
 70
     0
  9
$DIMALTD
 70
     3
  9
$DIMALTF
 40
0.0393700787
  9
$DIMLFAC
 40
1.0
  9
$DIMTOFL
 70
     1
  9
$DIMTVP
 40
0.0
  9
$DIMTIX
 70
     0
  9
$DIMSOXD
 70
     0
  9
$DIMSAH
 70
     0
  9
$DIMBLK1
  1

  9
$DIMBLK2
  1

  9
$DIMSTYLE
  2
ISO-25
  9
$DIMCLRD
 70
     0
  9
$DIMCLRE
 70
     0
  9
$DIMCLRT
 70
     0
  9
$DIMTFAC
 40
1.0
  9
$DIMGAP
 40
1.524
  9
$DIMJUST
 70
     0
  9
$DIMSD1
 70
     0
  9
$DIMSD2
 70
     0
  9
$DIMTOLJ
 70
     0
  9
$DIMTZIN
 70
     0
  9
$DIMALTZ
 70
     0
  9
$DIMALTTZ
 70
     0
  9
$DIMUPT
 70
     0
  9
$DIMDEC
 70
     2
  9
$DIMTDEC
 70
     2
  9
$DIMALTU
 70
     2
  9
$DIMALTTD
 70
     3
  9
$DIMTXSTY
  7
Standard
  9
$DIMAUNIT
 70
     0
  9
$DIMADEC
 70
     2
  9
$DIMALTRND
 40
0.0
  9
$DIMAZIN
 70
     0
  9
$DIMDSEP
 70
    44
  9
$DIMATFIT
 70
     3
  9
$DIMFRAC
 70
     0
  9
$DIMLDRBLK
  1

  9
$DIMLUNIT
 70
     2
  9
$DIMLWD
 70
    -2
  9
$DIMLWE
 70
    -2
  9
$DIMTMOVE
 70
     0
  9
$LUNITS
 70
     2
  9
$LUPREC
 70
     2
  9
$SKETCHINC
 40
1.0
  9
$FILLETRAD
 40
10.0
  9
$AUNITS
 70
     0
  9
$AUPREC
 70
     2
  9
$MENU
  1
.
  9
$ELEVATION
 40
0.0
  9
$PELEVATION
 40
0.0
  9
$THICKNESS
 40
0.0
  9
$LIMCHECK
 70
     0
  9
$CHAMFERA
 40
0.0
  9
$CHAMFERB
 40
0.0
  9
$CHAMFERC
 40
0.0
  9
$CHAMFERD
 40
0.0
  9
$SKPOLY
 70
     0
  9
$TDCREATE
 40
2459741.601760289
  9
$TDUCREATE
 40
2459741.476760289
  9
$TDUPDATE
 40
2459741.601760474
  9
$TDUUPDATE
 40
2459741.476760474
  9
$TDINDWG
 40
0.0000000116
  9
$TDUSRTIMER
 40
0.0000000116
  9
$USRTIMER
 70
     1
  9
$ANGBASE
 50
0.0
  9
$ANGDIR
 70
     0
  9
$PDMODE
 70
     0
  9
$PDSIZE
 40
-1.0
  9
$PLINEWID
 40
0.0
  9
$SPLFRAME
 70
     0
  9
$SPLINETYPE
 70
     6
  9
$SPLINESEGS
 70
     8
  9
$HANDSEED
  5
12C
  9
$SURFTAB1
 70
     6
  9
$SURFTAB2
 70
     6
  9
$SURFTYPE
 70
     6
  9
$SURFU
 70
     6
  9
$SURFV
 70
     6
  9
$UCSBASE
  2

  9
$UCSNAME
  2

  9
$UCSORG
 10
0.0
 20
0.0
 30
0.0
  9
$UCSXDIR
 10
1.0
 20
0.0
 30
0.0
  9
$UCSYDIR
 10
0.0
 20
1.0
 30
0.0
  9
$UCSORTHOREF
  2

  9
$UCSORTHOVIEW
 70
     0
  9
$UCSORGTOP
 10
0.0
 20
0.0
 30
0.0
  9
$UCSORGBOTTOM
 10
0.0
 20
0.0
 30
0.0
  9
$UCSORGLEFT
 10
0.0
 20
0.0
 30
0.0
  9
$UCSORGRIGHT
 10
0.0
 20
0.0
 30
0.0
  9
$UCSORGFRONT
 10
0.0
 20
0.0
 30
0.0
  9
$UCSORGBACK
 10
0.0
 20
0.0
 30
0.0
  9
$PUCSBASE
  2

  9
$PUCSNAME
  2

  9
$PUCSORG
 10
0.0
 20
0.0
 30
0.0
  9
$PUCSXDIR
 10
1.0
 20
0.0
 30
0.0
  9
$PUCSYDIR
 10
0.0
 20
1.0
 30
0.0
  9
$PUCSORTHOREF
  2

  9
$PUCSORTHOVIEW
 70
     0
  9
$PUCSORGTOP
 10
0.0
 20
0.0
 30
0.0
  9
$PUCSORGBOTTOM
 10
0.0
 20
0.0
 30
0.0
  9
$PUCSORGLEFT
 10
0.0
 20
0.0
 30
0.0
  9
$PUCSORGRIGHT
 10
0.0
 20
0.0
 30
0.0
  9
$PUCSORGFRONT
 10
0.0
 20
0.0
 30
0.0
  9
$PUCSORGBACK
 10
0.0
 20
0.0
 30
0.0
  9
$USERI1
 70
     0
  9
$USERI2
 70
     0
  9
$USERI3
 70
     0
  9
$USERI4
 70
     0
  9
$USERI5
 70
     0
  9
$USERR1
 40
0.0
  9
$USERR2
 40
0.0
  9
$USERR3
 40
0.0
  9
$USERR4
 40
0.0
  9
$USERR5
 40
0.0
  9
$WORLDVIEW
 70
     1
  9
$SHADEDGE
 70
     3
  9
$SHADEDIF
 70
    70
  9
$TILEMODE
 70
     1
  9
$MAXACTVP
 70
    64
  9
$PINSBASE
 10
0.0
 20
0.0
 30
0.0
  9
$PLIMCHECK
 70
     0
  9
$PEXTMIN
 10
1.0000000000E+20
 20
1.0000000000E+20
 30
1.0000000000E+20
  9
$PEXTMAX
 10
-1.0000000000E+20
 20
-1.0000000000E+20
 30
-1.0000000000E+20
  9
$PLIMMIN
 10
0.0
 20
0.0
  9
$PLIMMAX
 10
420.0
 20
297.0
  9
$UNITMODE
 70
     0
  9
$VISRETAIN
 70
     1
  9
$PLINEGEN
 70
     0
  9
$PSLTSCALE
 70
     1
  9
$TREEDEPTH
 70
  3020
  9
$CMLSTYLE
  2
Standard
  9
$CMLJUST
 70
     0
  9
$CMLSCALE
 40
20.0
  9
$PROXYGRAPHICS
 70
     1
  9
$MEASUREMENT
 70
     1
  9
$CELWEIGHT
370
    -1
  9
$ENDCAPS
280
     0
  9
$JOINSTYLE
280
     0
  9
$LWDISPLAY
290
     1
  9
$INSUNITS
 70
     4
  9
$HYPERLINKBASE
  1

  9
$STYLESHEET
  1

  9
$XEDIT
290
     1
  9
$CEPSNTYPE
380
     0
  9
$PSTYLEMODE
290
     1
  9
$FINGERPRINTGUID
  2
{05bdf35a-7ebc-4b5a-85e6-98c8577a7d82}
  9
$VERSIONGUID
  2
{FAEB1C32-E019-11D5-929B-00C0DF256EC4}
  9
$EXTNAMES
290
     1
  9
$PSVPSCALE
 40
0.0
  9
$OLESTARTUP
290
     0
  0
ENDSEC
  0
SECTION
  2
CLASSES
  0
CLASS
  1
ACDBDICTIONARYWDFLT
  2
AcDbDictionaryWithDefault
  3
ObjectDBX Classes
 90
        0
280
     0
281
     0
  0
CLASS
  1
VISUALSTYLE
  2
AcDbVisualStyle
  3
ObjectDBX Classes
 90
     4095
280
     0
281
     0
  0
CLASS
  1
MATERIAL
  2
AcDbMaterial
  3
ObjectDBX Classes
 90
     1153
280
     0
281
     0
  0
CLASS
  1
SCALE
  2
AcDbScale
  3
ObjectDBX Classes
 90
     1153
280
     0
281
     0
  0
CLASS
  1
TABLESTYLE
  2
AcDbTableStyle
  3
ObjectDBX Classes
 90
     4095
280
     0
281
     0
  0
CLASS
  1
MLEADERSTYLE
  2
AcDbMLeaderStyle
  3
ACDB_MLEADERSTYLE_CLASS
 90
     4095
280
     0
281
     0
  0
CLASS
  1
SUN
  2
AcDbSun
  3
SCENEOE
 90
     1153
280
     0
281
     0
  0
CLASS
  1
ACDBPLACEHOLDER
  2
AcDbPlaceHolder
  3
ObjectDBX Classes
 90
        0
280
     0
281
     0
  0
CLASS
  1
LAYOUT
  2
AcDbLayout
  3
ObjectDBX Classes
 90
        0
280
     0
281
     0
  0
ENDSEC
  0
SECTION
  2
TABLES
  0
TABLE
  2
VPORT
  5
8
330
0
100
AcDbSymbolTable
 70
     1
  0
VPORT
  5
29
330
8
100
AcDbSymbolTableRecord
100
AcDbViewportTableRecord
  2
*Active
 70
     0
 10
0.0
 20
0.0
 11
1.0
 21
1.0
 12
139.7
 22
107.95
 13
0.0
 23
0.0
 14
10.0
 24
10.0
 15
10.0
 25
10.0
 16
0.0
 26
0.0
 36
1.0
 17
0.0
 27
0.0
 37
0.0
 40
215.9
 41
1.2941176471
 42
50.0
 43
0.0
 44
0.0
 50
0.0
 51
0.0
 71
     0
 72
  2000
 73
     1
 74
     3
 75
     0
 76
     0
 77
     0
 78
     0
281
     0
 65
     1
110
0.0
120
0.0
130
0.0
111
1.0
121
0.0
131
0.0
112
0.0
122
1.0
132
0.0
 79
     0
146
0.0
  0
ENDTAB
  0
TABLE
  2
LTYPE
  5
5
330
0
100
AcDbSymbolTable
 70
     6
  0
LTYPE
  5
14
330
5
100
AcDbSymbolTableRecord
100
AcDbLinetypeTableRecord
  2
ByBlock
 70
     0
  3

 72
    65
 73
     0
 40
0.0
  0
LTYPE
  5
15
330
5
100
AcDbSymbolTableRecord
100
AcDbLinetypeTableRecord
  2
ByLayer
 70
     0
  3

 72
    65
 73
     0
 40
0.0
  0
LTYPE
  5
16
330
5
100
AcDbSymbolTableRecord
100
AcDbLinetypeTableRecord
  2
Continuous
 70
     0
  3
Solid line
 72
    65
 73
     0
 40
0.0
  0
LTYPE
  5
6E
330
5
100
AcDbSymbolTableRecord
100
AcDbLinetypeTableRecord
  2
HIDDEN
 70
     0
  3
Hidden __ __ __ __ __ __ __ __ __ __ __ __ __ __
 72
    65
 73
     2
 40
1.905
 49
1.27
 74
     0
 49
-0.635
 74
     0
  0
LTYPE
  5
6F
330
5
100
AcDbSymbolTableRecord
100
AcDbLinetypeTableRecord
  2
PHANTOM
 70
     0
  3
Phantom ______  __  __  ______  __  __  ______
 72
    65
 73
     6
 40
12.7
 49
6.35
 74
     0
 49
-1.27
 74
     0
 49
1.27
 74
     0
 49
-1.27
 74
     0
 49
1.27
 74
     0
 49
-1.27
 74
     0
  0
LTYPE
  5
70
330
5
100
AcDbSymbolTableRecord
100
AcDbLinetypeTableRecord
  2
CENTER
 70
     0
  3
Center ____ _ ____ _ ____ _ ____ _ ____ _ ____
 72
    65
 73
     4
 40
10.16
 49
6.35
 74
     0
 49
-1.27
 74
     0
 49
1.27
 74
     0
 49
-1.27
 74
     0
  0
LTYPE
  5
71
330
5
100
AcDbSymbolTableRecord
100
AcDbLinetypeTableRecord
  2
CENTERX2
 70
     0
  3
Center (2x) ________  __  ________  __  _____
 72
    65
 73
     4
 40
20.32
 49
12.7
 74
     0
 49
-2.54
 74
     0
 49
2.54
 74
     0
 49
-2.54
 74
     0
  0
LTYPE
  5
72
330
5
100
AcDbSymbolTableRecord
100
AcDbLinetypeTableRecord
  2
DOT2
 70
     0
  3
Dot (.5x) ........................................
 72
    65
 73
     2
 40
0.635
 49
0.0
 74
     0
 49
-0.635
 74
     0
  0
ENDTAB
  0
TABLE
  2
LAYER
  5
2
330
0
100
AcDbSymbolTable
 70
    17
  0
LAYER
  5
10
330
2
100
AcDbSymbolTableRecord
100
AcDbLayerTableRecord
  2
0
 70
     0
 62
     7
  6
Continuous
370
    -3
390
F
  0
LAYER
  5
73
330
2
100
AcDbSymbolTableRecord
100
AcDbLayerTableRecord
  2
FORMAT
 70
     0
 62
     7
  6
Continuous
370
    -3
390
F
  0
LAYER
  5
74
330
2
100
AcDbSymbolTableRecord
100
AcDbLayerTableRecord
  2
YARDIMCI_GEOMETRI
 70
     0
 62
    -6
  6
Continuous
290
     0
370
    -3
390
F
  0
LAYER
  5
75
330
2
100
AcDbSymbolTableRecord
100
AcDbLayerTableRecord
  2
SAYFA_CERCEVESI
 70
     0
 62
     7
  6
Continuous
370
    25
390
F
  0
LAYER
  5
76
330
2
100
AcDbSymbolTableRecord
100
AcDbLayerTableRecord
  2
ANTET
 70
     0
 62
     7
  6
Continuous
370
    -3
390
F
  0
LAYER
  5
77
330
2
100
AcDbSymbolTableRecord
100
AcDbLayerTableRecord
  2
OLCU
 70
     0
 62
   150
  6
Continuous
370
    -3
390
F
  0
LAYER
  5
78
330
2
100
AcDbSymbolTableRecord
100
AcDbLayerTableRecord
  2
METIN
 70
     0
 62
    96
  6
Continuous
370
    -3
390
F
  0
LAYER
  5
79
330
2
100
AcDbSymbolTableRecord
100
AcDbLayerTableRecord
  2
BALON
 70
     0
 62
     5
  6
Continuous
370
    -3
390
F
  0
LAYER
  5
7A
330
2
100
AcDbSymbolTableRecord
100
AcDbLayerTableRecord
  2
VURGU
 70
     0
 62
     7
  6
Continuous
370
    -3
390
F
  0
LAYER
  5
7B
330
2
100
AcDbSymbolTableRecord
100
AcDbLayerTableRecord
  2
SILIK
 70
     0
 62
     7
  6
Continuous
370
    -3
390
F
  0
LAYER
  5
7C
330
2
100
AcDbSymbolTableRecord
100
AcDbLayerTableRecord
  2
MODEL
 70
     0
 62
     7
  6
Continuous
370
    -3
390
F
  0
LAYER
  5
7D
330
2
100
AcDbSymbolTableRecord
100
AcDbLayerTableRecord
  2
DETAYLANDıRMA
 70
     0
 62
   190
  6
Continuous
370
    -3
390
F
  0
LAYER
  5
7E
330
2
100
AcDbSymbolTableRecord
100
AcDbLayerTableRecord
  2
TOLERANS
 70
     0
 62
   230
  6
Continuous
370
    -3
390
F
  0
LAYER
  5
7F
330
2
100
AcDbSymbolTableRecord
100
AcDbLayerTableRecord
  2
MERKEZ_CIZGILERI
 70
     0
 62
    30
  6
Continuous
370
    -3
390
F
  0
LAYER
  5
80
330
2
100
AcDbSymbolTableRecord
100
AcDbLayerTableRecord
  2
KESIT-DETAY_CIZGILERI
 70
     0
 62
     7
  6
Continuous
370
    -3
390
F
  0
LAYER
  5
81
330
2
100
AcDbSymbolTableRecord
100
AcDbLayerTableRecord
  2
\U+041E\U+0421\U+0415\U+0412\U+042B\U+0415
 70
     0
 62
     7
  6
Continuous
370
    -3
390
F
  0
LAYER
  5
82
330
2
100
AcDbSymbolTableRecord
100
AcDbLayerTableRecord
  2
\U+0412\U+041E\U+0414\U+042F\U+041D\U+042B\U+0415_\U+0417\U+041D\U+0410\U+041A\U+0418
 70
     0
 62
    11
  6
Continuous
370
    -3
390
F
  0
ENDTAB
  0
TABLE
  2
STYLE
  5
3
330
0
100
AcDbSymbolTable
 70
     1
  0
STYLE
  5
11
330
3
100
AcDbSymbolTableRecord
100
AcDbTextStyleTableRecord
  2
Standard
 70
     0
 40
0.0
 41
1.0
 50
0.0
 71
     0
 42
3.5
  3
txt
  4

  0
ENDTAB
  0
TABLE
  2
VIEW
  5
6
330
0
100
AcDbSymbolTable
 70
     0
  0
ENDTAB
  0
TABLE
  2
UCS
  5
7
330
0
100
AcDbSymbolTable
 70
     0
  0
ENDTAB
  0
TABLE
  2
APPID
  5
9
330
0
100
AcDbSymbolTable
 70
     1
  0
APPID
  5
12
330
9
100
AcDbSymbolTableRecord
100
AcDbRegAppTableRecord
  2
ACAD
 70
     0
  0
ENDTAB
  0
TABLE
  2
DIMSTYLE
  5
A
330
0
100
AcDbSymbolTable
 70
     1
100
AcDbDimStyleTable
  0
DIMSTYLE
105
27
330
A
100
AcDbSymbolTableRecord
100
AcDbDimStyleTableRecord
  2
ISO-25
 70
     0
 41
2.5
 42
0.625
 43
3.75
 44
1.25
 73
     0
 74
     0
 77
     1
 78
     8
140
2.5
141
2.5
143
0.0393700787
147
0.625
171
     3
172
     1
178
     0
271
     2
272
     2
274
     3
278
    44
283
     0
284
     8
340
11
  0
ENDTAB
  0
TABLE
  2
BLOCK_RECORD
  5
1
330
0
100
AcDbSymbolTable
 70
     4
  0
BLOCK_RECORD
  5
1F
330
1
100
AcDbSymbolTableRecord
100
AcDbBlockTableRecord
  2
*Model_Space
340
22
  0
BLOCK_RECORD
  5
1B
330
1
100
AcDbSymbolTableRecord
100
AcDbBlockTableRecord
  2
*Paper_Space
340
1E
  0
BLOCK_RECORD
  5
23
330
1
100
AcDbSymbolTableRecord
100
AcDbBlockTableRecord
  2
*Paper_Space0
340
26
  0
BLOCK_RECORD
  5
93
330
1
100
AcDbSymbolTableRecord
100
AcDbBlockTableRecord
  2
SW_CENTERMARKSYMBOL_0
340
0
102
{BLKREFS
331
9E
102
}
  0
BLOCK_RECORD
  5
E9
330
1
100
AcDbSymbolTableRecord
100
AcDbBlockTableRecord
  2
SW_CENTERMARKSYMBOL_1
340
0
102
{BLKREFS
331
F4
102
}
  0
BLOCK_RECORD
  5
F5
330
1
100
AcDbSymbolTableRecord
100
AcDbBlockTableRecord
  2
SW_CENTERMARKSYMBOL_2
340
0
102
{BLKREFS
331
100
102
}
  0
ENDTAB
  0
ENDSEC
  0
SECTION
  2
BLOCKS
  0
BLOCK
  5
20
330
1F
100
AcDbEntity
  8
0
100
AcDbBlockBegin
  2
*Model_Space
 70
     0
 10
0.0
 20
0.0
 30
0.0
  3
*Model_Space
  1

  0
ENDBLK
  5
21
330
1F
100
AcDbEntity
  8
0
100
AcDbBlockEnd
  0
BLOCK
  5
1C
330
1B
100
AcDbEntity
 67
     1
  8
0
100
AcDbBlockBegin
  2
*Paper_Space
 70
     0
 10
0.0
 20
0.0
 30
0.0
  3
*Paper_Space
  1

  0
ENDBLK
  5
1D
330
1B
100
AcDbEntity
 67
     1
  8
0
100
AcDbBlockEnd
  0
BLOCK
  5
24
330
23
100
AcDbEntity
  8
0
100
AcDbBlockBegin
  2
*Paper_Space0
 70
     0
 10
0.0
 20
0.0
 30
0.0
  3
*Paper_Space0
  1

  0
ENDBLK
  5
25
330
23
100
AcDbEntity
  8
0
100
AcDbBlockEnd
  0
BLOCK
  5
94
330
93
100
AcDbEntity
  8
0
100
AcDbBlockBegin
  2
SW_CENTERMARKSYMBOL_0
 70
     0
 10
0.0
 20
0.0
 30
0.0
  3
SW_CENTERMARKSYMBOL_0
  1

  0
LINE
  5
96
330
93
100
AcDbEntity
  8
FORMAT
 62
     0
100
AcDbLine
 10
0.0
 20
0.0
 30
0.0
 11
0.0
 21
2.5
 31
0.0
  0
LINE
  5
97
330
93
100
AcDbEntity
  8
FORMAT
 62
     0
100
AcDbLine
 10
0.0
 20
0.0
 30
0.0
 11
-2.5
 21
0.0
 31
0.0
  0
LINE
  5
98
330
93
100
AcDbEntity
  8
FORMAT
 62
     0
100
AcDbLine
 10
0.0
 20
0.0
 30
0.0
 11
0.0
 21
-2.5
 31
0.0
  0
LINE
  5
99
330
93
100
AcDbEntity
  8
FORMAT
 62
     0
100
AcDbLine
 10
0.0
 20
0.0
 30
0.0
 11
2.5
 21
0.0
 31
0.0
  0
LINE
  5
9A
330
93
100
AcDbEntity
  8
FORMAT
 62
     0
100
AcDbLine
 10
0.0
 20
5.0
 30
0.0
 11
0.0
 21
452.5
 31
0.0
  0
LINE
  5
9B
330
93
100
AcDbEntity
  8
FORMAT
 62
     0
100
AcDbLine
 10
-5.0
 20
0.0
 30
0.0
 11
-452.5
 21
0.0
 31
0.0
  0
LINE
  5
9C
330
93
100
AcDbEntity
  8
FORMAT
 62
     0
100
AcDbLine
 10
0.0
 20
-5.0
 30
0.0
 11
0.0
 21
-452.5
 31
0.0
  0
LINE
  5
9D
330
93
100
AcDbEntity
  8
FORMAT
 62
     0
100
AcDbLine
 10
5.0
 20
0.0
 30
0.0
 11
452.5
 21
0.0
 31
0.0
  0
ENDBLK
  5
95
330
93
100
AcDbEntity
  8
0
100
AcDbBlockEnd
  0
BLOCK
  5
EA
330
E9
100
AcDbEntity
  8
0
100
AcDbBlockBegin
  2
SW_CENTERMARKSYMBOL_1
 70
     0
 10
0.0
 20
0.0
 30
0.0
  3
SW_CENTERMARKSYMBOL_1
  1

  0
LINE
  5
EC
330
E9
100
AcDbEntity
  8
FORMAT
 62
     0
100
AcDbLine
 10
0.0
 20
0.0
 30
0.0
 11
0.0
 21
2.5
 31
0.0
  0
LINE
  5
ED
330
E9
100
AcDbEntity
  8
FORMAT
 62
     0
100
AcDbLine
 10
0.0
 20
0.0
 30
0.0
 11
-2.5
 21
0.0
 31
0.0
  0
LINE
  5
EE
330
E9
100
AcDbEntity
  8
FORMAT
 62
     0
100
AcDbLine
 10
0.0
 20
0.0
 30
0.0
 11
0.0
 21
-2.5
 31
0.0
  0
LINE
  5
EF
330
E9
100
AcDbEntity
  8
FORMAT
 62
     0
100
AcDbLine
 10
0.0
 20
0.0
 30
0.0
 11
2.5
 21
0.0
 31
0.0
  0
LINE
  5
F0
330
E9
100
AcDbEntity
  8
FORMAT
 62
     0
100
AcDbLine
 10
0.0
 20
5.0
 30
0.0
 11
0.0
 21
9.5
 31
0.0
  0
LINE
  5
F1
330
E9
100
AcDbEntity
  8
FORMAT
 62
     0
100
AcDbLine
 10
-5.0
 20
0.0
 30
0.0
 11
-9.5
 21
0.0
 31
0.0
  0
LINE
  5
F2
330
E9
100
AcDbEntity
  8
FORMAT
 62
     0
100
AcDbLine
 10
0.0
 20
-5.0
 30
0.0
 11
0.0
 21
-9.5
 31
0.0
  0
LINE
  5
F3
330
E9
100
AcDbEntity
  8
FORMAT
 62
     0
100
AcDbLine
 10
5.0
 20
0.0
 30
0.0
 11
9.5
 21
0.0
 31
0.0
  0
ENDBLK
  5
EB
330
E9
100
AcDbEntity
  8
0
100
AcDbBlockEnd
  0
BLOCK
  5
F6
330
F5
100
AcDbEntity
  8
0
100
AcDbBlockBegin
  2
SW_CENTERMARKSYMBOL_2
 70
     0
 10
0.0
 20
0.0
 30
0.0
  3
SW_CENTERMARKSYMBOL_2
  1

  0
LINE
  5
F8
330
F5
100
AcDbEntity
  8
FORMAT
 62
     0
100
AcDbLine
 10
0.0
 20
0.0
 30
0.0
 11
0.0
 21
2.5
 31
0.0
  0
LINE
  5
F9
330
F5
100
AcDbEntity
  8
FORMAT
 62
     0
100
AcDbLine
 10
0.0
 20
0.0
 30
0.0
 11
-2.5
 21
0.0
 31
0.0
  0
LINE
  5
FA
330
F5
100
AcDbEntity
  8
FORMAT
 62
     0
100
AcDbLine
 10
0.0
 20
0.0
 30
0.0
 11
0.0
 21
-2.5
 31
0.0
  0
LINE
  5
FB
330
F5
100
AcDbEntity
  8
FORMAT
 62
     0
100
AcDbLine
 10
0.0
 20
0.0
 30
0.0
 11
2.5
 21
0.0
 31
0.0
  0
LINE
  5
FC
330
F5
100
AcDbEntity
  8
FORMAT
 62
     0
100
AcDbLine
 10
0.0
 20
5.0
 30
0.0
 11
0.0
 21
9.5
 31
0.0
  0
LINE
  5
FD
330
F5
100
AcDbEntity
  8
FORMAT
 62
     0
100
AcDbLine
 10
-5.0
 20
0.0
 30
0.0
 11
-9.5
 21
0.0
 31
0.0
  0
LINE
  5
FE
330
F5
100
AcDbEntity
  8
FORMAT
 62
     0
100
AcDbLine
 10
0.0
 20
-5.0
 30
0.0
 11
0.0
 21
-9.5
 31
0.0
  0
LINE
  5
FF
330
F5
100
AcDbEntity
  8
FORMAT
 62
     0
100
AcDbLine
 10
5.0
 20
0.0
 30
0.0
 11
9.5
 21
0.0
 31
0.0
  0
ENDBLK
  5
F7
330
F5
100
AcDbEntity
  8
0
100
AcDbBlockEnd
  0
ENDSEC
  0
SECTION
  2
ENTITIES
  0
LINE
  5
83
330
1F
100
AcDbEntity
  8
0
  6
Continuous
 62
     7
370
    25
100
AcDbLine
 10
102.6070913462
 20
610.8163207334
 30
0.0
 11
102.6070913462
 21
615.8949519231
 31
0.0
  0
LINE
  5
84
330
1F
100
AcDbEntity
  8
0
  6
Continuous
 62
     7
370
    25
100
AcDbLine
 10
88.6070913462
 20
615.8949519231
 30
0.0
 11
88.6070913462
 21
609.8753626711
 31
0.0
  0
LINE
  5
85
330
1F
100
AcDbEntity
  8
0
  6
Continuous
 62
     7
370
    25
100
AcDbLine
 10
172.6070913462
 20
609.872976835
 30
0.0
 11
172.6070913462
 21
615.8949519231
 31
0.0
  0
LINE
  5
86
330
1F
100
AcDbEntity
  8
0
  6
Continuous
 62
     7
370
    25
100
AcDbLine
 10
158.6070913462
 20
615.8949519231
 30
0.0
 11
158.6070913462
 21
610.8143967026
 31
0.0
  0
CIRCLE
  5
87
330
1F
100
AcDbEntity
  8
0
  6
Continuous
 62
     7
370
    25
100
AcDbCircle
 10
130.6070913462
 20
95.8949519231
 30
0.0
 40
515.5
  0
ARC
  5
88
330
1F
100
AcDbEntity
  8
0
  6
Continuous
 62
     7
370
    25
100
AcDbCircle
 10
130.6070913462
 20
95.8949519231
 30
0.0
 40
517.5
100
AcDbArc
 50
94.6552123525
 51
180.0
  0
ARC
  5
89
330
1F
100
AcDbEntity
  8
0
  6
Continuous
 62
     7
370
    25
100
AcDbCircle
 10
130.6070913462
 20
95.8949519231
 30
0.0
 40
517.5
100
AcDbArc
 50
86.8984239374
 51
93.1015760626
  0
ARC
  5
8A
330
1F
100
AcDbEntity
  8
0
  6
Continuous
 62
     7
370
    25
100
AcDbCircle
 10
130.6070913462
 20
95.8949519231
 30
0.0
 40
517.5
100
AcDbArc
 50
180.0
 51
85.3447876475
  0
SPLINE
  5
8B
330
1F
100
AcDbEntity
  8
0
  6
Continuous
 62
     7
370
    25
100
AcDbSpline
210
0.0
220
0.0
230
1.0
 70
     8
 71
     3
 72
    15
 73
    11
 74
     0
 42
0.00000001
 43
0.00000001
 40
0.0
 40
0.0
 40
0.0
 40
0.0
 40
0.1335312016704044
 40
0.2670558468696952
 40
0.400735863359414
 40
0.5345443781129029
 40
0.6683033443833091
 40
0.8017995924633845
 40
0.934912827274897
 40
1.0
 40
1.0
 40
1.0
 40
1.0
 10
101.3355159432923
 20
610.687798027624
 30
0.0
 10
100.819042155169
 20
610.6488361383421
 30
0.0
 10
99.78611993813007
 20
610.570914272833
 30
0.0
 10
97.59230524795767
 20
610.41942393244
 30
0.0
 10
95.21915370196504
 20
610.2573938939576
 30
0.0
 10
92.8785980326953
 20
610.099095765097
 30
0.0
 10
90.83860885315868
 20
609.9645593121668
 30
0.0
 10
89.3804623211048
 20
609.8780770099545
 30
0.0
 10
88.62644149386546
 20
609.8453795749174
 30
0.0
 10
88.68618386970437
 20
609.8679505670017
 30
0.0
 10
88.70580271097501
 20
609.8753626711373
 30
0.0
  0
SPLINE
  5
8C
330
1F
100
AcDbEntity
  8
0
  6
Continuous
 62
     7
370
    25
100
AcDbSpline
210
0.0
220
0.0
230
1.0
 70
     8
 71
     3
 72
    10
 73
     6
 74
     0
 42
0.00000001
 43
0.00000001
 40
0.0
 40
0.0
 40
0.0
 40
0.0
 40
0.107234657121312
 40
0.656877384972299
 40
1.0
 40
1.0
 40
1.0
 40
1.0
 10
102.5450473715106
 20
610.8163207333631
 30
0.0
 10
102.5643103405103
 20
610.8150870836155
 30
0.0
 10
102.6823077216095
 20
610.807530229871
 30
0.0
 10
102.2337693611526
 20
610.7614588516824
 30
0.0
 10
101.5849002501156
 20
610.708248663472
 30
0.0
 10
101.3355159432923
 20
610.687798027624
 30
0.0
  0
SPLINE
  5
8D
330
1F
100
AcDbEntity
  8
0
  6
Continuous
 62
     7
370
    25
100
AcDbSpline
210
0.0
220
0.0
230
1.0
 70
     8
 71
     3
 72
    14
 73
    10
 74
     0
 42
0.00000001
 43
0.00000001
 40
0.0
 40
0.0
 40
0.0
 40
0.0
 40
0.1549317362560818
 40
0.3098554723420757
 40
0.464942171214132
 40
0.6200161710055182
 40
0.7748999349822999
 40
0.929524592544041
 40
1.0
 40
1.0
 40
1.0
 40
1.0
 10
169.6230135227922
 20
610.0146880053205
 30
0.0
 10
168.9326352996916
 20
610.0603180851797
 30
0.0
 10
167.5519145023724
 20
610.1515758887095
 30
0.0
 10
165.1393196896008
 20
610.315732134587
 30
0.0
 10
162.8142794294398
 20
610.474809447664
 30
0.0
 10
160.7839035391877
 20
610.6174219523705
 30
0.0
 10
159.3468189001995
 20
610.7282443212277
 30
0.0
 10
158.6148482642271
 20
610.796640084572
 30
0.0
 10
158.6839940367284
 20
610.8101629112182
 30
0.0
 10
158.7056425266589
 20
610.814396702611
 30
0.0
  0
SPLINE
  5
8E
330
1F
100
AcDbEntity
  8
0
  6
Continuous
 62
     7
370
    25
100
AcDbSpline
210
0.0
220
0.0
230
1.0
 70
     8
 71
     3
 72
    11
 73
     7
 74
     0
 42
0.00000001
 43
0.00000001
 40
0.0
 40
0.0
 40
0.0
 40
0.0
 40
0.0812709730430433
 40
0.4316223987940939
 40
0.7817306061000767
 40
1.0
 40
1.0
 40
1.0
 40
1.0
 10
172.5365662199814
 20
609.8729768349964
 30
0.0
 10
172.5580626601808
 20
609.8685004383013
 30
0.0
 10
172.6722282070787
 20
609.8447267217196
 30
0.0
 10
172.0903217292986
 20
609.8658554312377
 30
0.0
 10
171.0035905947661
 20
609.9258487856121
 30
0.0
 10
170.0060795264847
 20
609.990037961831
 30
0.0
 10
169.6230135227922
 20
610.0146880053205
 30
0.0
  0
CIRCLE
  5
8F
330
1F
100
AcDbEntity
  8
0
  6
Continuous
 62
     7
370
    25
100
AcDbCircle
 10
130.6070913462
 20
95.8949519231
 30
0.0
 40
450.0
  0
LINE
  5
90
330
1F
100
AcDbEntity
  8
0
  6
Continuous
 62
     7
370
    25
100
AcDbLine
 10
95.6070913462
 20
615.8949519231
 30
0.0
 11
88.6070913462
 21
615.8949519231
 31
0.0
  0
LINE
  5
91
330
1F
100
AcDbEntity
  8
0
  6
Continuous
 62
     7
370
    25
100
AcDbLine
 10
102.6070913462
 20
615.8949519231
 30
0.0
 11
95.6070913462
 21
615.8949519231
 31
0.0
  0
LINE
  5
92
330
1F
100
AcDbEntity
  8
0
  6
Continuous
 62
     7
370
    25
100
AcDbLine
 10
172.6070913462
 20
615.8949519231
 30
0.0
 11
158.6070913462
 21
615.8949519231
 31
0.0
  0
INSERT
  5
9E
330
1F
100
AcDbEntity
  8
FORMAT
 62
     7
100
AcDbBlockReference
  2
SW_CENTERMARKSYMBOL_0
 10
130.6070913462
 20
95.8949519231
 30
0.0
  0
ARC
  5
9F
330
1F
100
AcDbEntity
  8
0
  6
Continuous
 62
     7
370
    25
100
AcDbCircle
 10
1581.4763735621
 20
-15326.6675480771
 30
0.0
 40
15940.06250000014
100
AcDbArc
 50
90.0
 51
90.8393344148
  0
LINE
  5
A0
330
1F
100
AcDbEntity
  8
0
  6
Continuous
 62
     7
370
    25
100
AcDbLine
 10
1333.9763735621
 20
611.4733803346
 30
0.0
 11
1328.9763735621
 21
611.3949519231
 31
0.0
  0
ARC
  5
A1
330
1F
100
AcDbEntity
  8
0
  6
Continuous
 62
     7
370
    25
100
AcDbCircle
 10
1581.4763735621
 20
15518.4574519232
 30
0.0
 40
15940.06250000014
100
AcDbArc
 50
269.092363068
 51
270.0
  0
LINE
  5
A2
330
1F
100
AcDbEntity
  8
0
  6
Continuous
 62
     7
370
    25
100
AcDbLine
 10
1581.4763735621
 20
-421.6050480769
 30
0.0
 11
1626.4763735621
 21
-421.6050480769
 31
0.0
  0
LINE
  5
A3
330
1F
100
AcDbEntity
  8
0
  6
Continuous
 62
     7
370
    25
100
AcDbLine
 10
1626.4763735621
 20
613.3949519231
 30
0.0
 11
1581.4763735621
 21
613.3949519231
 31
0.0
  0
LINE
  5
A4
330
1F
100
AcDbEntity
  8
0
  6
Continuous
 62
     7
370
    25
100
AcDbLine
 10
1878.9763735621
 20
611.3949519231
 30
0.0
 11
1873.9763735621
 21
611.4733803346
 31
0.0
  0
ARC
  5
A5
330
1F
100
AcDbEntity
  8
0
  6
Continuous
 62
     7
370
    25
100
AcDbCircle
 10
1626.4763735621
 20
-15326.6675480771
 30
0.0
 40
15940.06250000014
100
AcDbArc
 50
89.1606655852
 51
90.0
  0
ARC
  5
A6
330
1F
100
AcDbEntity
  8
0
  6
Continuous
 62
     7
370
    25
100
AcDbCircle
 10
1626.4763735621
 20
15518.4574519232
 30
0.0
 40
15940.06250000014
100
AcDbArc
 50
270.0
 51
270.907636932
  0
LINE
  5
A7
330
1F
100
AcDbEntity
  8
0
  6
Continuous
 62
     7
370
    25
100
AcDbLine
 10
1347.9763735621
 20
610.4942710957
 30
0.0
 11
1347.9763735621
 21
615.8949519231
 31
0.0
  0
LINE
  5
A8
330
1F
100
AcDbEntity
  8
0
  6
Continuous
 62
     7
370
    25
100
AcDbLine
 10
1333.9763735621
 20
615.8949519231
 30
0.0
 11
1333.9763735621
 21
610.2837150367
 31
0.0
  0
LINE
  5
A9
330
1F
100
AcDbEntity
  8
0
  6
Continuous
 62
     7
370
    25
100
AcDbLine
 10
1873.9763735621
 20
610.2837172806
 30
0.0
 11
1873.9763735621
 21
615.8949519231
 31
0.0
  0
LINE
  5
AA
330
1F
100
AcDbEntity
  8
0
  6
Continuous
 62
     7
370
    25
100
AcDbLine
 10
1859.9763735621
 20
615.8949519231
 30
0.0
 11
1859.9763735621
 21
610.4939192712
 31
0.0
  0
LINE
  5
AB
330
1F
100
AcDbEntity
  8
0
  6
Continuous
 62
     7
370
    25
100
AcDbLine
 10
1328.9763735621
 20
95.8949519231
 30
0.0
 11
1328.9763735621
 21
611.3949519231
 31
0.0
  0
LINE
  5
AC
330
1F
100
AcDbEntity
  8
0
  6
Continuous
 62
     7
370
    25
100
AcDbLine
 10
1328.9763735621
 20
-419.6050480769
 30
0.0
 11
1328.9763735621
 21
95.8949519231
 31
0.0
  0
SPLINE
  5
AD
330
1F
100
AcDbEntity
  8
0
  6
Continuous
 62
     7
370
    25
100
AcDbSpline
210
0.0
220
0.0
230
1.0
 70
     8
 71
     3
 72
    18
 73
    14
 74
     0
 42
0.00000001
 43
0.00000001
 40
0.0
 40
0.0
 40
0.0
 40
0.0
 40
0.0124253161278402
 40
0.1200372932747625
 40
0.2278361825148662
 40
0.335627689967523
 40
0.4431808841802546
 40
0.5503821719027326
 40
0.657326848562297
 40
0.7642608931042901
 40
0.8714181883329242
 40
0.978883430280993
 40
1.0
 40
1.0
 40
1.0
 40
1.0
 10
1347.935956996821
 20
610.4942710957341
 30
0.0
 10
1347.94905421222
 20
610.4885324569865
 30
0.0
 10
1348.075582525047
 20
610.4330931703504
 30
0.0
 10
1347.559690665351
 20
610.3049432878182
 30
0.0
 10
1346.377056024761
 20
610.1339975760987
 30
0.0
 10
1344.502928240986
 20
609.9854995122805
 30
0.0
 10
1342.252505295285
 20
609.8851347109648
 30
0.0
 10
1339.85552602195
 20
609.8467304360661
 30
0.0
 10
1337.595602927531
 20
609.8745764882999
 30
0.0
 10
1335.697808446241
 20
609.9620406886893
 30
0.0
 10
1334.459020211951
 20
610.0940981241346
 30
0.0
 10
1333.90055836316
 20
610.2095884791244
 30
0.0
 10
1334.019537282639
 20
610.2732586870005
 30
0.0
 10
1334.039076800832
 20
610.2837150366678
 30
0.0
  0
LINE
  5
AE
330
1F
100
AcDbEntity
  8
0
  6
Continuous
 62
     7
370
    25
100
AcDbLine
 10
1878.9763735621
 20
95.8949519231
 30
0.0
 11
1878.9763735621
 21
611.3949519231
 31
0.0
  0
LINE
  5
AF
330
1F
100
AcDbEntity
  8
0
  6
Continuous
 62
     7
370
    25
100
AcDbLine
 10
1878.9763735621
 20
-419.6050480769
 30
0.0
 11
1878.9763735621
 21
95.8949519231
 31
0.0
  0
SPLINE
  5
B0
330
1F
100
AcDbEntity
  8
0
  6
Continuous
 62
     7
370
    25
100
AcDbSpline
210
0.0
220
0.0
230
1.0
 70
     8
 71
     3
 72
    18
 73
    14
 74
     0
 42
0.00000001
 43
0.00000001
 40
0.0
 40
0.0
 40
0.0
 40
0.0
 40
0.0172817228965876
 40
0.1250244149286823
 40
0.232727210494074
 40
0.3402184652234869
 40
0.4474013174516465
 40
0.5543465744532913
 40
0.6612814979584745
 40
0.7684562772363696
 40
0.8759813233440349
 40
0.9837607028232807
 40
1.0
 40
1.0
 40
1.0
 40
1.0
 10
1873.922849546394
 20
610.2837172806364
 30
0.0
 10
1873.939857341265
 20
610.2751704281417
 30
0.0
 10
1874.062900027207
 20
610.2133383273127
 30
0.0
 10
1873.521893895024
 20
610.0988466279815
 30
0.0
 10
1872.301998204554
 20
609.9651586025637
 30
0.0
 10
1870.407737642253
 20
609.8759358545061
 30
0.0
 10
1868.149761114038
 20
609.8466379215645
 30
0.0
 10
1865.757625160117
 20
609.8835238837236
 30
0.0
 10
1863.510785541566
 20
609.9819578585038
 30
0.0
 10
1861.630650105386
 20
610.1285040091573
 30
0.0
 10
1860.422553234237
 20
610.2987205152235
 30
0.0
 10
1859.886747286779
 20
610.4288395148261
 30
0.0
 10
1860.011078327611
 20
610.486384230747
 30
0.0
 10
1860.027358526487
 20
610.493919271178
 30
0.0
  0
LINE
  5
B1
330
1F
100
AcDbEntity
  8
0
  6
Continuous
 62
     7
370
    25
100
AcDbLine
 10
1347.9763735621
 20
615.8949519231
 30
0.0
 11
1333.9763735621
 21
615.8949519231
 31
0.0
  0
LINE
  5
B2
330
1F
100
AcDbEntity
  8
0
  6
Continuous
 62
     7
370
    25
100
AcDbLine
 10
1873.9763735621
 20
615.8949519231
 30
0.0
 11
1859.9763735621
 21
615.8949519231
 31
0.0
  0
LINE
  5
B3
330
1F
100
AcDbEntity
  8
0
  6
Continuous
 62
     1
370
    25
100
AcDbLine
 10
1581.4763735621
 20
95.8949519231
 30
0.0
 11
1581.4763735621
 21
613.3949519231
 31
0.0
  0
LINE
  5
B4
330
1F
100
AcDbEntity
  8
0
  6
Continuous
 62
     1
370
    25
100
AcDbLine
 10
1581.4763735621
 20
-421.6050480769
 30
0.0
 11
1581.4763735621
 21
95.8949519231
 31
0.0
  0
LINE
  5
B5
330
1F
100
AcDbEntity
  8
0
  6
Continuous
 62
     1
370
    25
100
AcDbLine
 10
1626.4763735621
 20
95.8949519231
 30
0.0
 11
1626.4763735621
 21
613.3949519231
 31
0.0
  0
LINE
  5
B6
330
1F
100
AcDbEntity
  8
0
  6
Continuous
 62
     1
370
    25
100
AcDbLine
 10
1626.4763735621
 20
-421.6050480769
 30
0.0
 11
1626.4763735621
 21
95.8949519231
 31
0.0
  0
ARC
  5
B7
330
1F
100
AcDbEntity
  8
0
  6
Continuous
 62
     7
370
    25
100
AcDbCircle
 10
15553.1695913463
 20
1285.7560505843
 30
0.0
 40
15940.06250000014
100
AcDbArc
 50
180.0
 51
180.907636932
  0
ARC
  5
B8
330
1F
100
AcDbEntity
  8
0
  6
Continuous
 62
     7
370
    25
100
AcDbCircle
 10
-15291.955408654
 20
1285.7560505843
 30
0.0
 40
15940.06250000014
100
AcDbArc
 50
359.092363068
 51
0.0
  0
LINE
  5
B9
330
1F
100
AcDbEntity
  8
0
  6
Continuous
 62
     7
370
    25
100
AcDbLine
 10
648.1070913462
 20
1285.7560505842
 30
0.0
 11
648.1070913462
 21
1330.7560505843
 31
0.0
  0
LINE
  5
BA
330
1F
100
AcDbEntity
  8
0
  6
Continuous
 62
     7
370
    25
100
AcDbLine
 10
-386.8929086538
 20
1330.7560505843
 30
0.0
 11
-386.8929086538
 21
1285.7560505842
 31
0.0
  0
ARC
  5
BB
330
1F
100
AcDbEntity
  8
0
  6
Continuous
 62
     7
370
    25
100
AcDbCircle
 10
15553.1695913463
 20
1330.7560505842
 30
0.0
 40
15940.06250000014
100
AcDbArc
 50
179.092363068
 51
180.0
  0
ARC
  5
BC
330
1F
100
AcDbEntity
  8
0
  6
Continuous
 62
     7
370
    25
100
AcDbCircle
 10
-15291.955408654
 20
1330.7560505842
 30
0.0
 40
15940.06250000014
100
AcDbArc
 50
0.0
 51
0.907636932
  0
LINE
  5
BD
330
1F
100
AcDbEntity
  8
0
  6
Continuous
 62
     7
370
    25
100
AcDbLine
 10
646.1070913462
 20
1033.2560505842
 30
0.0
 11
-384.8929086538
 21
1033.2560505842
 31
0.0
  0
LINE
  5
BE
330
1F
100
AcDbEntity
  8
0
  6
Continuous
 62
     7
370
    25
100
AcDbLine
 10
646.1070913462
 20
1583.2560505842
 30
0.0
 11
-384.8929086538
 21
1583.2560505842
 31
0.0
  0
LINE
  5
BF
330
1F
100
AcDbEntity
  8
0
  6
Continuous
 62
     1
370
    25
100
AcDbLine
 10
648.1070913462
 20
1285.7560505842
 30
0.0
 11
-386.8929086538
 21
1285.7560505842
 31
0.0
  0
LINE
  5
C0
330
1F
100
AcDbEntity
  8
0
  6
Continuous
 62
     1
370
    25
100
AcDbLine
 10
648.1070913462
 20
1330.7560505843
 30
0.0
 11
-386.8929086538
 21
1330.7560505843
 31
0.0
  0
ARC
  5
C1
330
1F
100
AcDbEntity
  8
0
  6
Continuous
 62
     7
370
    25
100
AcDbCircle
 10
-1045.6342133349
 20
15518.4574519232
 30
0.0
 40
15940.06250000014
100
AcDbArc
 50
270.0
 51
270.907636932
  0
LINE
  5
C2
330
1F
100
AcDbEntity
  8
0
  6
Continuous
 62
     7
370
    25
100
AcDbLine
 10
-793.1342133349
 20
611.3949519231
 30
0.0
 11
-798.1342133349
 21
611.4733803346
 31
0.0
  0
ARC
  5
C3
330
1F
100
AcDbEntity
  8
0
  6
Continuous
 62
     7
370
    25
100
AcDbCircle
 10
-1045.6342133349
 20
-15326.6675480771
 30
0.0
 40
15940.06250000014
100
AcDbArc
 50
89.1606655852
 51
90.0
  0
LINE
  5
C4
330
1F
100
AcDbEntity
  8
0
  6
Continuous
 62
     7
370
    25
100
AcDbLine
 10
-1045.6342133349
 20
613.3949519231
 30
0.0
 11
-1090.6342133349
 21
613.3949519231
 31
0.0
  0
LINE
  5
C5
330
1F
100
AcDbEntity
  8
0
  6
Continuous
 62
     7
370
    25
100
AcDbLine
 10
-1090.6342133349
 20
-421.6050480769
 30
0.0
 11
-1045.6342133349
 21
-421.6050480769
 31
0.0
  0
ARC
  5
C6
330
1F
100
AcDbEntity
  8
0
  6
Continuous
 62
     7
370
    25
100
AcDbCircle
 10
-1090.6342133349
 20
15518.4574519232
 30
0.0
 40
15940.06250000014
100
AcDbArc
 50
269.092363068
 51
270.0
  0
ARC
  5
C7
330
1F
100
AcDbEntity
  8
0
  6
Continuous
 62
     7
370
    25
100
AcDbCircle
 10
-1090.6342133349
 20
-15326.6675480771
 30
0.0
 40
15940.06250000014
100
AcDbArc
 50
90.0
 51
90.8393344148
  0
LINE
  5
C8
330
1F
100
AcDbEntity
  8
0
  6
Continuous
 62
     7
370
    25
100
AcDbLine
 10
-1338.1342133349
 20
611.4733803346
 30
0.0
 11
-1343.1342133349
 21
611.3949519231
 31
0.0
  0
LINE
  5
C9
330
1F
100
AcDbEntity
  8
0
  6
Continuous
 62
     7
370
    25
100
AcDbLine
 10
-798.1342133349
 20
610.284528952
 30
0.0
 11
-798.1342133349
 21
615.8949519231
 31
0.0
  0
LINE
  5
CA
330
1F
100
AcDbEntity
  8
0
  6
Continuous
 62
     7
370
    25
100
AcDbLine
 10
-812.1342133349
 20
615.8949519231
 30
0.0
 11
-812.1342133349
 21
610.4946350035
 31
0.0
  0
LINE
  5
CB
330
1F
100
AcDbEntity
  8
0
  6
Continuous
 62
     7
370
    25
100
AcDbLine
 10
-1324.1342133349
 20
610.4949619237
 30
0.0
 11
-1324.1342133349
 21
615.8949519231
 31
0.0
  0
LINE
  5
CC
330
1F
100
AcDbEntity
  8
0
  6
Continuous
 62
     7
370
    25
100
AcDbLine
 10
-1338.1342133349
 20
615.8949519231
 30
0.0
 11
-1338.1342133349
 21
610.2845866949
 31
0.0
  0
LINE
  5
CD
330
1F
100
AcDbEntity
  8
0
  6
Continuous
 62
     7
370
    25
100
AcDbLine
 10
-793.1342133349
 20
611.3949519231
 30
0.0
 11
-793.1342133349
 21
-419.6050480769
 31
0.0
  0
SPLINE
  5
CE
330
1F
100
AcDbEntity
  8
0
  6
Continuous
 62
     7
370
    25
100
AcDbSpline
210
0.0
220
0.0
230
1.0
 70
     8
 71
     3
 72
     9
 73
     5
 74
     0
 42
0.00000001
 43
0.00000001
 40
0.0
 40
0.0
 40
0.0
 40
0.0
 40
0.5453177709025608
 40
1.0
 40
1.0
 40
1.0
 40
1.0
 10
-810.8314833664618
 20
610.1837971098884
 30
0.0
 10
-811.2429696713252
 20
610.2415431036927
 30
0.0
 10
-811.997550443895
 20
610.347437312328
 30
0.0
 10
-812.0535531965876
 20
610.448626209971
 30
0.0
 10
-812.0790166530174
 20
610.4946350035113
 30
0.0
  0
SPLINE
  5
CF
330
1F
100
AcDbEntity
  8
0
  6
Continuous
 62
     7
370
    25
100
AcDbSpline
210
0.0
220
0.0
230
1.0
 70
     8
 71
     3
 72
    15
 73
    11
 74
     0
 42
0.00000001
 43
0.00000001
 40
0.0
 40
0.0
 40
0.0
 40
0.0
 40
0.1148703816193724
 40
0.2490567588557842
 40
0.3830420082100571
 40
0.516661607688525
 40
0.6499335351433849
 40
0.78309301087748
 40
0.9164660644758085
 40
0.9999999999999999
 40
0.9999999999999999
 40
0.9999999999999999
 40
0.9999999999999999
 10
-798.1831918784266
 20
610.2845289519687
 30
0.0
 10
-798.2200203528852
 20
610.2385180261708
 30
0.0
 10
-798.2998701832154
 20
610.1387592207274
 30
0.0
 10
-799.3708167768714
 20
610.0022830913858
 30
0.0
 10
-801.0691621397522
 20
609.8974251598831
 30
0.0
 10
-803.2440207762197
 20
609.8486841347434
 30
0.0
 10
-805.6242310244652
 20
609.8652102912871
 30
0.0
 10
-807.9379737050183
 20
609.9461490185382
 30
0.0
 10
-809.7193319949491
 20
610.0623790698171
 30
0.0
 10
-810.5222632391761
 20
610.150038304417
 30
0.0
 10
-810.8314833664618
 20
610.1837971098884
 30
0.0
  0
LINE
  5
D0
330
1F
100
AcDbEntity
  8
0
  6
Continuous
 62
     7
370
    25
100
AcDbLine
 10
-1343.1342133349
 20
611.3949519231
 30
0.0
 11
-1343.1342133349
 21
-419.6050480769
 31
0.0
  0
SPLINE
  5
D1
330
1F
100
AcDbEntity
  8
0
  6
Continuous
 62
     7
370
    25
100
AcDbSpline
210
0.0
220
0.0
230
1.0
 70
     8
 71
     3
 72
     9
 73
     5
 74
     0
 42
0.00000001
 43
0.00000001
 40
0.0
 40
0.0
 40
0.0
 40
0.0
 40
0.552652460362073
 40
1.0
 40
1.0
 40
1.0
 40
1.0
 10
-1336.867656372988
 20
610.0146880053205
 30
0.0
 10
-1337.273586698553
 20
610.0602375639537
 30
0.0
 10
-1338.008099533797
 20
610.1426574605435
 30
0.0
 10
-1338.052910146235
 20
610.2407190735829
 30
0.0
 10
-1338.072956063459
 20
610.2845866949089
 30
0.0
  0
SPLINE
  5
D2
330
1F
100
AcDbEntity
  8
0
  6
Continuous
 62
     7
370
    25
100
AcDbSpline
210
0.0
220
0.0
230
1.0
 70
     8
 71
     3
 72
    15
 73
    11
 74
     0
 42
0.00000001
 43
0.00000001
 40
0.0
 40
0.0
 40
0.0
 40
0.0
 40
0.1176030517539846
 40
0.251341913446356
 40
0.3851390439704062
 40
0.5187020728921716
 40
0.6518397893131462
 40
0.7846084540933874
 40
0.9172849491667912
 40
1.0
 40
1.0
 40
1.0
 40
1.0
 10
-1324.175696326849
 20
610.4949619236969
 30
0.0
 10
-1324.218740254154
 20
610.4464308409855
 30
0.0
 10
-1324.310733981269
 20
610.3427099340156
 30
0.0
 10
-1325.403655855613
 20
610.1727344928893
 30
0.0
 10
-1327.117373891143
 20
610.017100710808
 30
0.0
 10
-1329.304476295939
 20
609.9036189178947
 30
0.0
 10
-1331.691771800256
 20
609.8497147383072
 30
0.0
 10
-1334.002758685344
 20
609.8625338795939
 30
0.0
 10
-1335.77156579977
 20
609.9263263057836
 30
0.0
 10
-1336.56352627834
 20
609.9901704584134
 30
0.0
 10
-1336.867656372988
 20
610.0146880053205
 30
0.0
  0
LINE
  5
D3
330
1F
100
AcDbEntity
  8
0
  6
Continuous
 62
     7
370
    25
100
AcDbLine
 10
-798.1342133349
 20
615.8949519231
 30
0.0
 11
-812.1342133349
 21
615.8949519231
 31
0.0
  0
LINE
  5
D4
330
1F
100
AcDbEntity
  8
0
  6
Continuous
 62
     7
370
    25
100
AcDbLine
 10
-1324.1342133349
 20
615.8949519231
 30
0.0
 11
-1338.1342133349
 21
615.8949519231
 31
0.0
  0
LINE
  5
D5
330
1F
100
AcDbEntity
  8
0
  6
Continuous
 62
     1
370
    25
100
AcDbLine
 10
-1045.6342133349
 20
613.3949519231
 30
0.0
 11
-1045.6342133349
 21
-421.6050480769
 31
0.0
  0
LINE
  5
D6
330
1F
100
AcDbEntity
  8
0
  6
Continuous
 62
     1
370
    25
100
AcDbLine
 10
-1090.6342133349
 20
613.3949519231
 30
0.0
 11
-1090.6342133349
 21
-421.6050480769
 31
0.0
  0
ARC
  5
D7
330
1F
100
AcDbEntity
  8
0
  6
Continuous
 62
     7
370
    25
100
AcDbCircle
 10
-15291.955408654
 20
-1255.8675796338
 30
0.0
 40
15940.06250000014
100
AcDbArc
 50
0.0
 51
0.907636932
  0
ARC
  5
D8
330
1F
100
AcDbEntity
  8
0
  6
Continuous
 62
     7
370
    25
100
AcDbCircle
 10
15553.1695913463
 20
-1255.8675796338
 30
0.0
 40
15940.06250000014
100
AcDbArc
 50
179.092363068
 51
180.0
  0
LINE
  5
D9
330
1F
100
AcDbEntity
  8
0
  6
Continuous
 62
     7
370
    25
100
AcDbLine
 10
-386.8929086538
 20
-1255.8675796338
 30
0.0
 11
-386.8929086538
 21
-1300.8675796338
 31
0.0
  0
LINE
  5
DA
330
1F
100
AcDbEntity
  8
0
  6
Continuous
 62
     7
370
    25
100
AcDbLine
 10
648.1070913462
 20
-1300.8675796338
 30
0.0
 11
648.1070913462
 21
-1255.8675796338
 31
0.0
  0
ARC
  5
DB
330
1F
100
AcDbEntity
  8
0
  6
Continuous
 62
     7
370
    25
100
AcDbCircle
 10
-15291.955408654
 20
-1300.8675796338
 30
0.0
 40
15940.06250000014
100
AcDbArc
 50
359.092363068
 51
0.0
  0
ARC
  5
DC
330
1F
100
AcDbEntity
  8
0
  6
Continuous
 62
     7
370
    25
100
AcDbCircle
 10
15553.1695913463
 20
-1300.8675796338
 30
0.0
 40
15940.06250000014
100
AcDbArc
 50
180.0
 51
180.907636932
  0
CIRCLE
  5
DD
330
1F
100
AcDbEntity
  8
0
  6
Continuous
 62
     7
370
    25
100
AcDbCircle
 10
165.6070913462
 20
-1015.3675796338
 30
0.0
 40
7.000000000000114
  0
CIRCLE
  5
DE
330
1F
100
AcDbEntity
  8
0
  6
Continuous
 62
     7
370
    25
100
AcDbCircle
 10
165.6070913462
 20
-1015.3675796338
 30
0.0
 40
5.000000000000114
  0
CIRCLE
  5
DF
330
1F
100
AcDbEntity
  8
0
  6
Continuous
 62
     7
370
    25
100
AcDbCircle
 10
95.6070913462
 20
-1015.3675796338
 30
0.0
 40
4.999999999999886
  0
CIRCLE
  5
E0
330
1F
100
AcDbEntity
  8
0
  6
Continuous
 62
     7
370
    25
100
AcDbCircle
 10
95.6070913462
 20
-1015.3675796338
 30
0.0
 40
6.999999999999886
  0
CIRCLE
  5
E1
330
1F
100
AcDbEntity
  8
0
  6
Continuous
 62
     7
370
    25
100
AcDbCircle
 10
165.6070913462
 20
-1541.3675796338
 30
0.0
 40
7.0
  0
CIRCLE
  5
E2
330
1F
100
AcDbEntity
  8
0
  6
Continuous
 62
     7
370
    25
100
AcDbCircle
 10
165.6070913462
 20
-1541.3675796338
 30
0.0
 40
5.0
  0
CIRCLE
  5
E3
330
1F
100
AcDbEntity
  8
0
  6
Continuous
 62
     7
370
    25
100
AcDbCircle
 10
95.6070913462
 20
-1541.3675796338
 30
0.0
 40
5.0
  0
CIRCLE
  5
E4
330
1F
100
AcDbEntity
  8
0
  6
Continuous
 62
     7
370
    25
100
AcDbCircle
 10
95.6070913462
 20
-1541.3675796338
 30
0.0
 40
7.0
  0
LINE
  5
E5
330
1F
100
AcDbEntity
  8
0
  6
Continuous
 62
     7
370
    25
100
AcDbLine
 10
-384.8929086538
 20
-1003.3675796338
 30
0.0
 11
646.1070913462
 21
-1003.3675796338
 31
0.0
  0
LINE
  5
E6
330
1F
100
AcDbEntity
  8
0
  6
Continuous
 62
     7
370
    25
100
AcDbLine
 10
-384.8929086538
 20
-1553.3675796338
 30
0.0
 11
646.1070913462
 21
-1553.3675796338
 31
0.0
  0
LINE
  5
E7
330
1F
100
AcDbEntity
  8
0
  6
Continuous
 62
     1
370
    25
100
AcDbLine
 10
-386.8929086538
 20
-1255.8675796338
 30
0.0
 11
648.1070913462
 21
-1255.8675796338
 31
0.0
  0
LINE
  5
E8
330
1F
100
AcDbEntity
  8
0
  6
Continuous
 62
     1
370
    25
100
AcDbLine
 10
-386.8929086538
 20
-1300.8675796338
 30
0.0
 11
648.1070913462
 21
-1300.8675796338
 31
0.0
  0
INSERT
  5
F4
330
1F
100
AcDbEntity
  8
FORMAT
 62
     7
100
AcDbBlockReference
  2
SW_CENTERMARKSYMBOL_1
 10
130.6070913462
 20
-1140.3675796338
 30
0.0
  0
INSERT
  5
100
330
1F
100
AcDbEntity
  8
FORMAT
 62
     7
100
AcDbBlockReference
  2
SW_CENTERMARKSYMBOL_2
 10
130.6070913462
 20
-1416.3675796338
 30
0.0
  0
SPLINE
  5
101
330
1F
100
AcDbEntity
  8
0
  6
Continuous
 62
     7
370
    25
100
AcDbSpline
210
0.0
220
0.0
230
1.0
 70
     8
 71
     3
 72
    12
 73
     8
 74
     0
 42
0.00000001
 43
0.00000001
 40
0.0
 40
0.0
 40
0.0
 40
0.0
 40
0.118233832808501
 40
0.3969840484486986
 40
0.6757184666202919
 40
0.9544332304665697
 40
1.0
 40
1.0
 40
1.0
 40
1.0
 10
1235.19952089874
 20
-933.6428251333699
 30
0.0
 10
1228.043750251489
 20
-937.7632875995544
 30
0.0
 10
1204.017405728623
 20
-951.5982266559257
 30
0.0
 10
1163.285420650416
 20
-975.4303077413657
 30
0.0
 10
1113.021549434229
 20
-1005.158236881415
 30
0.0
 10
1076.857536642383
 20
-1026.736012717044
 30
0.0
 10
1057.495110219569
 20
-1038.477298759036
 30
0.0
 10
1054.774377980452
 20
-1040.127138235017
 30
0.0
  0
SPLINE
  5
102
330
1F
100
AcDbEntity
  8
0
  6
Continuous
 62
     7
370
    25
100
AcDbSpline
210
0.0
220
0.0
230
1.0
 70
     8
 71
     3
 72
    12
 73
     8
 74
     0
 42
0.00000001
 43
0.00000001
 40
0.0
 40
0.0
 40
0.0
 40
0.0
 40
0.0031684215685177
 40
0.281937761421746
 40
0.560707533272039
 40
0.8394739612738396
 40
1.0
 40
1.0
 40
1.0
 40
1.0
 10
1570.186655409767
 20
-1932.948209673171
 30
0.0
 10
1570.380661056404
 20
-1932.841851091319
 30
0.0
 10
1587.643994401811
 20
-1923.377674741381
 30
0.0
 10
1621.841891590175
 20
-1904.303135777996
 30
0.0
 10
1672.756738947048
 20
-1875.689464048169
 30
0.0
 10
1716.348110286157
 20
-1850.895633008724
 30
0.0
 10
1742.911937081993
 20
-1835.545737726802
 30
0.0
 10
1752.618877701086
 20
-1829.936586486805
 30
0.0
  0
LINE
  5
103
330
1F
100
AcDbEntity
  8
0
  6
Continuous
 62
     7
370
    25
100
AcDbLine
 10
1267.000050309
 20
-915.2402266738
 30
0.0
 11
1235.1802451556
 21
-933.6094091899
 31
0.0
  0
LINE
  5
104
330
1F
100
AcDbEntity
  8
0
  6
Continuous
 62
     7
370
    25
100
AcDbLine
 10
1752.6381892948
 20
-1829.9699817539
 30
0.0
 11
1784.4579944482
 21
-1811.6007992378
 31
0.0
  0
SPLINE
  5
105
330
1F
100
AcDbEntity
  8
0
  6
Continuous
 62
     7
370
    25
100
AcDbSpline
210
0.0
220
0.0
230
1.0
 70
     8
 71
     3
 72
    12
 73
     8
 74
     0
 42
0.00000001
 43
0.00000001
 40
0.0
 40
0.0
 40
0.0
 40
0.0
 40
0.0031662017575387
 40
0.2819361071540625
 40
0.5607064445454307
 40
0.8394734380773357
 40
1.0
 40
1.0
 40
1.0
 40
1.0
 10
1449.451175258324
 20
-812.2622229574959
 30
0.0
 10
1449.257305928231
 20
-812.3685068121143
 30
0.0
 10
1431.994109073201
 20
-821.8326087611294
 30
0.0
 10
1397.796348178367
 20
-840.9070729547693
 30
0.0
 10
1346.881500608489
 20
-869.5207442868318
 30
0.0
 10
1303.290117349799
 20
-894.3145822792055
 30
0.0
 10
1276.726278614325
 20
-909.6644844718711
 30
0.0
 10
1267.019326052134
 20
-915.2736426173577
 30
0.0
  0
SPLINE
  5
106
330
1F
100
AcDbEntity
  8
0
  6
Continuous
 62
     7
370
    25
100
AcDbSpline
210
0.0
220
0.0
230
1.0
 70
     8
 71
     3
 72
    12
 73
     8
 74
     0
 42
0.00000001
 43
0.00000001
 40
0.0
 40
0.0
 40
0.0
 40
0.0
 40
0.1182339970154586
 40
0.3969841340916394
 40
0.6757184736999096
 40
0.9544331589873455
 40
1.0
 40
1.0
 40
1.0
 40
1.0
 10
1784.438682854487
 20
-1811.567403970795
 30
0.0
 10
1791.594465460096
 20
-1807.446934626122
 30
0.0
 10
1815.620821949291
 20
-1793.611988704162
 30
0.0
 10
1856.352818960474
 20
-1769.779900695384
 30
0.0
 10
1906.616690174608
 20
-1740.05197154967
 30
0.0
 10
1942.780708008754
 20
-1718.474192672755
 30
0.0
 10
1962.143139460182
 20
-1706.732903567505
 30
0.0
 10
1964.86387673323
 20
-1705.083061037014
 30
0.0
  0
LINE
  5
107
330
1F
100
AcDbEntity
  8
0
  6
Continuous
 62
     7
370
    25
100
AcDbLine
 10
1355.5987736913
 20
-1074.3733549536
 30
0.0
 11
1355.5987736913
 21
-1069.6486906948
 31
0.0
  0
LINE
  5
108
330
1F
100
AcDbEntity
  8
0
  6
Continuous
 62
     7
370
    25
100
AcDbLine
 10
1341.5987736913
 20
-1069.6486906948
 30
0.0
 11
1341.5987736913
 21
-1073.950390063
 31
0.0
  0
LINE
  5
109
330
1F
100
AcDbEntity
  8
0
  6
Continuous
 62
     7
370
    25
100
AcDbLine
 10
1306.1012990083
 20
-1045.2571397067
 30
0.0
 11
1306.1012990083
 21
-1041.074406781
 31
0.0
  0
LINE
  5
10A
330
1F
100
AcDbEntity
  8
0
  6
Continuous
 62
     7
370
    25
100
AcDbLine
 10
1292.1012990083
 20
-1041.074406781
 30
0.0
 11
1292.1012990083
 21
-1045.9216902314
 31
0.0
  0
LINE
  5
10B
330
1F
100
AcDbEntity
  8
0
  6
Continuous
 62
     7
370
    25
100
AcDbLine
 10
1727.5369405955
 20
-859.7786730947
 30
0.0
 11
1727.5369405955
 21
-854.9333572855
 31
0.0
  0
LINE
  5
10C
330
1F
100
AcDbEntity
  8
0
  6
Continuous
 62
     7
370
    25
100
AcDbLine
 10
1713.5369405955
 20
-854.9333572855
 30
0.0
 11
1713.5369405955
 21
-859.1138908937
 31
0.0
  0
LINE
  5
10D
330
1F
100
AcDbEntity
  8
0
  6
Continuous
 62
     7
370
    25
100
AcDbLine
 10
1678.0394659124
 20
-830.6622377846
 30
0.0
 11
1678.0394659124
 21
-826.3590733717
 31
0.0
  0
LINE
  5
10E
330
1F
100
AcDbEntity
  8
0
  6
Continuous
 62
     7
370
    25
100
AcDbLine
 10
1664.0394659124
 20
-826.3590733717
 30
0.0
 11
1664.0394659124
 21
-831.0844565184
 31
0.0
  0
LWPOLYLINE
  5
10F
330
1F
100
AcDbEntity
  8
0
  6
Continuous
 62
     7
370
    25
100
AcDbPolyline
 90
      241
 70
   128
 43
0.0
 10
950.8512092739
 20
-1274.4320287672
 10
950.9761189621
 20
-1263.4855588106
 10
951.3507624198
 20
-1252.690808674
 10
951.9748828851
 20
-1242.0551765398
 10
952.8480526169
 20
-1231.5859515391
 10
953.9696731885
 20
-1221.2903087558
 10
955.3389758971
 20
-1211.1753043091
 10
956.9550222909
 20
-1201.2478705178
 10
958.8167048125
 20
-1191.5148111491
 10
960.9227475578
 20
-1181.9827967558
 10
963.2717071501
 20
-1172.6583601044
 10
965.86197373
 20
-1163.5478916981
 10
968.6917720582
 20
-1154.6576353967
 10
971.7591627321
 20
-1145.9936841378
 10
975.0620435154
 20
-1137.561975761
 10
978.5981507787
 20
-1129.3682889379
 10
982.3650610506
 20
-1121.4182392122
 10
986.3601926791
 20
-1113.7172751508
 10
990.5808076004
 20
-1106.2706746099
 10
995.0240132159
 20
-1099.0835411176
 10
999.6867643744
 20
-1092.160800376
 10
1004.5658654592
 20
-1085.5071968859
 10
1009.6579725782
 20
-1079.1272906949
 10
1014.9595958554
 20
-1073.0254542718
 10
1020.4671018231
 20
-1067.2058695106
 10
1026.1767159118
 20
-1061.672524864
 10
1032.0845250372
 20
-1056.42921261
 10
1038.186480282
 20
-1051.479526253
 10
1044.478399671
 20
-1046.8268580607
 10
1050.9559710368
 20
-1042.4743967394
 10
1057.6147549756
 20
-1038.4251252488
 10
1064.4501878895
 20
-1034.6818187573
 10
1071.4575851142
 20
-1031.2470427402
 10
1078.6321441297
 20
-1028.1231512214
 10
1085.9689478516
 20
-1025.31228516
 10
1093.4629680012
 20
-1022.8163709833
 10
1101.1090685513
 20
-1020.6371192662
 10
1108.9020092466
 20
-1018.7760235589
 10
1116.8364491947
 20
-1017.2343593635
 10
1124.9069505269
 20
-1016.0131832597
 10
1133.1079821247
 20
-1015.1133321804
 10
1141.4339234107
 20
-1014.5354228388
 10
1149.8790682006
 20
-1014.279851305
 10
1158.4376286141
 20
-1014.3467927349
 10
1167.1037390412
 20
-1014.7362012502
 10
1175.8714601629
 20
-1015.4478099699
 10
1184.734783021
 20
-1016.4811311928
 10
1193.6876331367
 20
-1017.8354567321
 10
1202.7238746739
 20
-1019.5098584009
 10
1211.8373146439
 20
-1021.5031886478
 10
1221.0217071501
 20
-1023.8140813439
 10
1230.2707576688
 20
-1026.4409527187
 10
1239.5781273628
 20
-1029.3820024458
 10
1248.9374374256
 20
-1032.6352148767
 10
1258.3422734538
 20
-1036.198360422
 10
1267.7861898425
 20
-1040.0689970797
 10
1277.2627142031
 20
-1044.2444721089
 10
1286.7653517993
 20
-1048.7219238475
 10
1296.2875899978
 20
-1053.4982836738
 10
1305.8229027322
 20
-1058.5702781093
 10
1315.3647549756
 20
-1063.9344310624
 10
1324.9066072189
 20
-1069.5870662105
 10
1334.4419199534
 20
-1075.52430952
 10
1343.9641581519
 20
-1081.7420919008
 10
1353.466795748
 20
-1088.2361519955
 10
1362.9433201086
 20
-1095.0020390997
 10
1372.3872364973
 20
-1102.0351162122
 10
1381.7920725255
 20
-1109.3305632135
 10
1391.1513825884
 20
-1116.8833801684
 10
1400.4587522823
 20
-1124.6883907535
 10
1409.707802801
 20
-1132.7402458046
 10
1418.8921953073
 20
-1141.0334269822
 10
1428.0056352773
 20
-1149.5622505542
 10
1437.0418768144
 20
-1158.3208712911
 10
1445.9947269302
 20
-1167.3032864717
 10
1454.8580497883
 20
-1176.5033399973
 10
1463.6257709099
 20
-1185.9147266107
 10
1472.2918813371
 20
-1195.5309962177
 10
1480.8504417505
 20
-1205.3455583074
 10
1489.2955865404
 20
-1215.3516864692
 10
1497.6215278264
 20
-1225.5425230028
 10
1505.8225594242
 20
-1235.9110836177
 10
1513.8930607564
 20
-1246.4502622205
 10
1521.8275007046
 20
-1257.1528357845
 10
1529.6204413999
 20
-1268.0114693006
 10
1537.26654195
 20
-1279.0187208036
 10
1544.7605620995
 20
-1290.1670464732
 10
1552.0973658214
 20
-1301.4488058038
 10
1559.271924837
 20
-1312.8562668413
 10
1566.2793220617
 20
-1324.3816114815
 10
1573.1147549756
 20
-1336.0169408289
 10
1579.7735389144
 20
-1347.7542806101
 10
1586.2511102802
 20
-1359.5855866386
 10
1592.5430296691
 20
-1371.5027503283
 10
1598.644984914
 20
-1383.4976042505
 10
1604.5527940394
 20
-1395.5619277313
 10
1610.2624081281
 20
-1407.6874524862
 10
1615.7699140958
 20
-1419.8658682862
 10
1621.071537373
 20
-1432.0888286533
 10
1626.1636444919
 20
-1444.3479565812
 10
1631.0427455768
 20
-1456.6348502758
 10
1635.7054967353
 20
-1468.9410889141
 10
1640.1487023508
 20
-1481.2582384146
 10
1644.3693172721
 20
-1493.5778572185
 10
1648.3644489005
 20
-1505.8915020744
 10
1652.1313591725
 20
-1518.1907338251
 10
1655.6674664357
 20
-1530.4671231917
 10
1658.9703472191
 20
-1542.7122565499
 10
1662.037737893
 20
-1554.9177416972
 10
1664.8675362211
 20
-1567.0752136036
 10
1667.457802801
 20
-1579.1763401452
 10
1669.8067623934
 20
-1591.2128278143
 10
1671.9128051386
 20
-1603.1764274035
 10
1673.7744876603
 20
-1615.0589396593
 10
1675.3905340541
 20
-1626.8522209012
 10
1676.7598367626
 20
-1638.5481886034
 10
1677.8814573342
 20
-1650.138826934
 10
1678.7546270661
 20
-1661.6161922482
 10
1679.3787475314
 20
-1672.9724185333
 10
1679.7533909891
 20
-1684.199722799
 10
1679.8783006772
 20
-1695.2904104118
 10
1679.7533909891
 20
-1706.2368803683
 10
1679.3787475314
 20
-1717.031630505
 10
1678.7546270661
 20
-1727.6672626391
 10
1677.8814573342
 20
-1738.1364876398
 10
1676.7598367626
 20
-1748.4321304232
 10
1675.3905340541
 20
-1758.5471348699
 10
1673.7744876603
 20
-1768.4745686612
 10
1671.9128051386
 20
-1778.2076280298
 10
1669.8067623934
 20
-1787.7396424231
 10
1667.457802801
 20
-1797.0640790745
 10
1664.8675362211
 20
-1806.1745474809
 10
1662.037737893
 20
-1815.0648037823
 10
1658.9703472191
 20
-1823.7287550411
 10
1655.6674664357
 20
-1832.160463418
 10
1652.1313591725
 20
-1840.3541502411
 10
1648.3644489005
 20
-1848.3041999668
 10
1644.3693172721
 20
-1856.0051640281
 10
1640.1487023508
 20
-1863.451764569
 10
1635.7054967353
 20
-1870.6388980614
 10
1631.0427455768
 20
-1877.5616388029
 10
1626.1636444919
 20
-1884.215242293
 10
1621.071537373
 20
-1890.5951484841
 10
1615.7699140958
 20
-1896.6969849072
 10
1610.2624081281
 20
-1902.5165696683
 10
1604.5527940394
 20
-1908.0499143149
 10
1598.644984914
 20
-1913.2932265689
 10
1592.5430296691
 20
-1918.242912926
 10
1586.2511102802
 20
-1922.8955811183
 10
1579.7735389144
 20
-1927.2480424395
 10
1573.1147549756
 20
-1931.2973139301
 10
1566.2793220617
 20
-1935.0406204216
 10
1559.2719248369
 20
-1938.4753964387
 10
1552.0973658214
 20
-1941.5992879576
 10
1544.7605620995
 20
-1944.410154019
 10
1537.26654195
 20
-1946.9060681956
 10
1529.6204413999
 20
-1949.0853199128
 10
1521.8275007046
 20
-1950.94641562
 10
1513.8930607564
 20
-1952.4880798154
 10
1505.8225594242
 20
-1953.7092559193
 10
1497.6215278264
 20
-1954.6091069985
 10
1489.2955865404
 20
-1955.1870163401
 10
1480.8504417505
 20
-1955.442587874
 10
1472.2918813371
 20
-1955.3756464441
 10
1463.6257709099
 20
-1954.9862379287
 10
1454.8580497883
 20
-1954.2746292091
 10
1445.9947269302
 20
-1953.2413079862
 10
1437.0418768144
 20
-1951.8869824468
 10
1428.0056352773
 20
-1950.212580778
 10
1418.8921953073
 20
-1948.2192505311
 10
1409.707802801
 20
-1945.908357835
 10
1400.4587522823
 20
-1943.2814864602
 10
1391.1513825884
 20
-1940.3404367331
 10
1381.7920725255
 20
-1937.0872243023
 10
1372.3872364973
 20
-1933.524078757
 10
1362.9433201086
 20
-1929.6534420992
 10
1353.466795748
 20
-1925.47796707
 10
1343.9641581519
 20
-1921.0005153314
 10
1334.4419199534
 20
-1916.2241555051
 10
1324.9066072189
 20
-1911.1521610696
 10
1315.3647549756
 20
-1905.7880081166
 10
1305.8229027322
 20
-1900.1353729684
 10
1296.2875899978
 20
-1894.1981296589
 10
1286.7653517993
 20
-1887.9803472781
 10
1277.2627142031
 20
-1881.4862871834
 10
1267.7861898425
 20
-1874.7204000793
 10
1258.3422734538
 20
-1867.6873229667
 10
1248.9374374256
 20
-1860.3918759655
 10
1239.5781273628
 20
-1852.8390590106
 10
1230.2707576688
 20
-1845.0340484254
 10
1221.0217071501
 20
-1836.9821933744
 10
1211.8373146439
 20
-1828.6890121968
 10
1202.7238746739
 20
-1820.1601886247
 10
1193.6876331367
 20
-1811.4015678878
 10
1184.734783021
 20
-1802.4191527072
 10
1175.8714601629
 20
-1793.2190991817
 10
1167.1037390412
 20
-1783.8077125683
 10
1158.4376286141
 20
-1774.1914429613
 10
1149.8790682006
 20
-1764.3768808716
 10
1141.4339234107
 20
-1754.3707527097
 10
1133.1079821247
 20
-1744.1799161762
 10
1124.9069505269
 20
-1733.8113555613
 10
1116.8364491947
 20
-1723.2721769585
 10
1108.9020092466
 20
-1712.5696033944
 10
1101.1090685513
 20
-1701.7109698784
 10
1093.4629680012
 20
-1690.7037183754
 10
1085.9689478516
 20
-1679.5553927058
 10
1078.6321441297
 20
-1668.2736333751
 10
1071.4575851142
 20
-1656.8661723377
 10
1064.4501878895
 20
-1645.3408276975
 10
1057.6147549756
 20
-1633.70549835
 10
1050.9559710368
 20
-1621.9681585688
 10
1044.478399671
 20
-1610.1368525403
 10
1038.186480282
 20
-1598.2196888506
 10
1032.0845250372
 20
-1586.2248349285
 10
1026.1767159118
 20
-1574.1605114476
 10
1020.4671018231
 20
-1562.0349866927
 10
1014.9595958554
 20
-1549.8565708928
 10
1009.6579725782
 20
-1537.6336105256
 10
1004.5658654592
 20
-1525.3744825977
 10
999.6867643744
 20
-1513.0875889031
 10
995.0240132159
 20
-1500.7813502649
 10
990.5808076004
 20
-1488.4642007643
 10
986.3601926791
 20
-1476.1445819604
 10
982.3650610506
 20
-1463.8309371045
 10
978.5981507787
 20
-1451.5317053538
 10
975.0620435154
 20
-1439.2553159873
 10
971.7591627321
 20
-1427.010182629
 10
968.6917720582
 20
-1414.8046974817
 10
965.86197373
 20
-1402.6472255753
 10
963.2717071501
 20
-1390.5460990337
 10
960.9227475578
 20
-1378.5096113646
 10
958.8167048125
 20
-1366.5460117754
 10
956.9550222909
 20
-1354.6634995197
 10
955.3389758971
 20
-1342.8702182777
 10
953.9696731885
 20
-1331.1742505755
 10
952.848052617
 20
-1319.583612245
 10
951.9748828851
 20
-1308.1062469307
 10
951.3507624198
 20
-1296.7500206456
 10
950.9761189621
 20
-1285.5227163799
 10
950.8512092739
 20
-1274.4320287672
  0
SPLINE
  5
110
330
1F
100
AcDbEntity
  8
0
  6
Continuous
 62
     7
370
    25
100
AcDbSpline
210
0.0
220
0.0
230
1.0
 70
     8
 71
     3
 72
    13
 73
     9
 74
     0
 42
0.00000001
 43
0.00000001
 40
0.0
 40
0.0
 40
0.0
 40
0.0
 40
0.1936096549317612
 40
0.3872098035002605
 40
0.581035228120722
 40
0.7750469650352139
 40
0.9689868605778614
 40
0.9999999999999999
 40
0.9999999999999999
 40
0.9999999999999999
 40
0.9999999999999999
 10
1300.307161587218
 20
-1049.306863110243
 30
0.0
 10
1299.517193411409
 20
-1049.372915454991
 30
0.0
 10
1297.937295847757
 20
-1049.505016901271
 30
0.0
 10
1295.668368765972
 20
-1049.149698660048
 30
0.0
 10
1293.776541647014
 20
-1048.428268373121
 30
0.0
 10
1292.556196640394
 20
-1047.382599695139
 30
0.0
 10
1292.014551503445
 20
-1046.490048002328
 30
0.0
 10
1292.13777288256
 20
-1045.993672592802
 30
0.0
 10
1292.154760792107
 20
-1045.925239820674
 30
0.0
  0
SPLINE
  5
111
330
1F
100
AcDbEntity
  8
0
  6
Continuous
 62
     7
370
    25
100
AcDbSpline
210
0.0
220
0.0
230
1.0
 70
     8
 71
     3
 72
    12
 73
     8
 74
     0
 42
0.00000001
 43
0.00000001
 40
0.0
 40
0.0
 40
0.0
 40
0.0
 40
0.1270003288795722
 40
0.3680168867280432
 40
0.6088192577492676
 40
0.8496548277773065
 40
0.9999999999999999
 40
0.9999999999999999
 40
0.9999999999999999
 40
0.9999999999999999
 10
1306.002071593075
 20
-1045.256640534772
 30
0.0
 10
1306.019216337265
 20
-1045.484661625336
 30
0.0
 10
1306.068897747039
 20
-1046.145412763525
 30
0.0
 10
1305.286853034271
 20
-1047.229395594678
 30
0.0
 10
1303.807590027209
 20
-1048.312517636722
 30
0.0
 10
1302.020681591422
 20
-1049.008248277709
 30
0.0
 10
1300.782890362617
 20
-1049.223957939455
 30
0.0
 10
1300.307161587218
 20
-1049.306863110243
 30
0.0
  0
SPLINE
  5
112
330
1F
100
AcDbEntity
  8
0
  6
Continuous
 62
     7
370
    25
100
AcDbSpline
210
0.0
220
0.0
230
1.0
 70
     8
 71
     3
 72
    12
 73
     8
 74
     0
 42
0.00000001
 43
0.00000001
 40
0.0
 40
0.0
 40
0.0
 40
0.0
 40
0.2419956484012453
 40
0.4839788009356363
 40
0.7262164932178635
 40
0.9684343501691565
 40
1.0
 40
1.0
 40
1.0
 40
1.0
 10
1347.384303043375
 20
-1078.429896591568
 30
0.0
 10
1346.622307755399
 20
-1078.269569515968
 30
0.0
 10
1345.098356526401
 20
-1077.948923643534
 30
0.0
 10
1343.226759280478
 20
-1076.915594432441
 30
0.0
 10
1342.028461826729
 20
-1075.617612197391
 30
0.0
 10
1341.503340926376
 20
-1074.558727430784
 30
0.0
 10
1341.629342068681
 20
-1074.016201912785
 30
0.0
 10
1341.643869269326
 20
-1073.953651868311
 30
0.0
  0
SPLINE
  5
113
330
1F
100
AcDbEntity
  8
0
  6
Continuous
 62
     7
370
    25
100
AcDbSpline
210
0.0
220
0.0
230
1.0
 70
     8
 71
     3
 72
    13
 73
     9
 74
     0
 42
0.00000001
 43
0.00000001
 40
0.0
 40
0.0
 40
0.0
 40
0.0
 40
0.1079945538553806
 40
0.3017602305233457
 40
0.4949088879070342
 40
0.6875221460753157
 40
0.8800016896538799
 40
1.0
 40
1.0
 40
1.0
 40
1.0
 10
1355.500072257524
 20
-1074.372272901339
 30
0.0
 10
1355.514574359898
 20
-1074.65011913831
 30
0.0
 10
1355.555096382531
 20
-1075.426481848512
 30
0.0
 10
1354.745519590485
 20
-1076.607478133237
 30
0.0
 10
1353.240316599899
 20
-1077.716373249311
 30
0.0
 10
1351.182357462584
 20
-1078.408646473455
 30
0.0
 10
1349.131601414046
 20
-1078.615759756218
 30
0.0
 10
1347.869122484244
 20
-1078.481467678154
 30
0.0
 10
1347.384303043375
 20
-1078.429896591568
 30
0.0
  0
LWPOLYLINE
  5
114
330
1F
100
AcDbEntity
  8
0
  6
Continuous
 62
     7
370
    25
100
AcDbPolyline
 90
      226
 70
   128
 43
0.0
 10
997.1667034416
 20
-1301.1693944294
 10
997.2907640761
 20
-1290.9813922106
 10
997.6628492408
 20
-1280.9445716491
 10
998.2826687949
 20
-1271.0667591558
 10
999.1497394217
 20
-1261.3556571516
 10
1000.2633850057
 20
-1251.8188380618
 10
1001.6227371596
 20
-1242.463738411
 10
1003.2267359013
 20
-1233.2976530246
 10
1005.074130481
 20
-1224.3277293402
 10
1007.1634803559
 20
-1215.5609618344
 10
1009.4931563138
 20
-1207.0041865689
 10
1012.0613417435
 20
-1198.6640758596
 10
1014.8660340513
 20
-1190.5471330739
 10
1017.9050462225
 20
-1182.6596875598
 10
1021.1760085267
 20
-1175.0078897099
 10
1024.676370366
 20
-1167.597706166
 10
1028.4034022635
 20
-1160.4349151664
 10
1032.3541979919
 20
-1153.52510204
 10
1036.5256768394
 20
-1146.8736548512
 10
1040.9145860124
 20
-1140.4857601986
 10
1045.5175031715
 20
-1134.36639917
 10
1050.3308391004
 20
-1128.5203434594
 10
1055.3508405044
 20
-1122.9521516449
 10
1060.5735929376
 20
-1117.6661656352
 10
1065.9950238546
 20
-1112.666507283
 10
1071.6109057867
 20
-1107.9570751716
 10
1077.4168596381
 20
-1103.5415415745
 10
1083.4083581007
 20
-1099.4233495919
 10
1089.5807291842
 20
-1095.6057104661
 10
1095.9291598592
 20
-1092.0916010772
 10
1102.4486998105
 20
-1088.8837616221
 10
1109.1342652969
 20
-1085.9846934774
 10
1115.9806431157
 20
-1083.3966572493
 10
1122.9824946672
 20
-1081.1216710106
 10
1130.1343601184
 20
-1079.161508727
 10
1137.4306626596
 20
-1077.5176988743
 10
1144.8657128536
 20
-1076.1915232458
 10
1152.4337130719
 20
-1075.1840159535
 10
1160.1287620156
 20
-1074.4959626212
 10
1167.944859317
 20
-1074.1278997722
 10
1175.8759102186
 20
-1074.0801144108
 10
1183.9157303254
 20
-1074.3526437987
 10
1192.0580504275
 20
-1074.9452754256
 10
1200.2965213887
 20
-1075.8575471751
 10
1208.624719097
 20
-1077.0887476853
 10
1217.0361494746
 20
-1078.6379169031
 10
1225.5242535409
 20
-1080.5038468327
 10
1234.0824125278
 20
-1082.6850824783
 10
1242.7039530403
 20
-1085.1799229778
 10
1251.3821522604
 20
-1087.9864229298
 10
1260.1102431895
 20
-1091.1023939099
 10
1268.8814199248
 20
-1094.5254061778
 10
1277.6888429666
 20
-1098.2527905713
 10
1286.5256445512
 20
-1102.2816405884
 10
1295.3849340065
 20
-1106.6088146529
 10
1304.2598031253
 20
-1111.2309385646
 10
1313.1433315515
 20
-1116.1444081305
 10
1322.0285921769
 20
-1121.3453919746
 10
1330.9086565424
 20
-1126.8298345263
 10
1339.7766002411
 20
-1132.5934591823
 10
1348.6255083172
 20
-1138.6317716413
 10
1357.4484806583
 20
-1144.940063409
 10
1366.2386373761
 20
-1151.5134154693
 10
1374.9891241706
 20
-1158.3467021199
 10
1383.6931176756
 20
-1165.4345949694
 10
1392.3438307788
 20
-1172.7715670922
 10
1400.9345179142
 20
-1180.3518973381
 10
1409.4584803225
 20
-1188.1696747937
 10
1417.9090712742
 20
-1196.2188033912
 10
1426.2797012526
 20
-1204.4930066623
 10
1434.5638430923
 20
-1212.9858326322
 10
1442.7550370687
 20
-1221.6906588506
 10
1450.8468959351
 20
-1230.6006975559
 10
1458.8331099034
 20
-1239.7090009679
 10
1466.7074515641
 20
-1249.0084667057
 10
1474.4637807426
 20
-1258.4918433256
 10
1482.0960492865
 20
-1268.1517359757
 10
1489.5983057826
 20
-1277.9806121624
 10
1496.9647001968
 20
-1287.9708076236
 10
1504.1894884363
 20
-1298.1145323055
 10
1511.2670368287
 20
-1308.4038764367
 10
1518.1918265146
 20
-1318.8308166961
 10
1524.9584577513
 20
-1329.3872224693
 10
1531.5616541233
 20
-1340.0648621887
 10
1537.9962666567
 20
-1350.8554097521
 10
1544.2572778342
 20
-1361.750451015
 10
1550.3398055076
 20
-1372.7414903519
 10
1556.2391067048
 20
-1383.8199572811
 10
1561.9505813282
 20
-1394.9772131472
 10
1567.4697757417
 20
-1406.2045578578
 10
1572.7923862435
 20
-1417.4932366671
 10
1577.9142624221
 20
-1428.8344470031
 10
1582.8314103924
 20
-1440.219345331
 10
1587.5399959104
 20
-1451.6390540496
 10
1592.0363473628
 20
-1463.0846684135
 10
1596.3169586299
 20
-1474.5472634769
 10
1600.3784918198
 20
-1486.0179010531
 10
1604.2177798711
 20
-1497.4876366839
 10
1607.8318290226
 20
-1508.9475266145
 10
1611.2178211473
 20
-1520.3886347673
 10
1614.3731159505
 20
-1531.8020397105
 10
1617.2952530282
 20
-1543.1788416142
 10
1619.9819537857
 20
-1554.5101691905
 10
1622.4311232148
 20
-1565.7871866109
 10
1624.6408515267
 20
-1577.0011003966
 10
1626.6094156417
 20
-1588.1431662749
 10
1628.3352805328
 20
-1599.2046959979
 10
1629.8171004224
 20
-1610.1770641175
 10
1631.053719832
 20
-1621.0517147112
 10
1632.044174483
 20
-1631.8201680535
 10
1632.7876920486
 20
-1642.4740272284
 10
1633.2836927561
 20
-1653.004984677
 10
1633.5317898392
 20
-1663.4048286755
 10
1633.5317898392
 20
-1673.6654497384
 10
1633.2836927561
 20
-1683.7788469419
 10
1632.7876920486
 20
-1693.7371341632
 10
1632.044174483
 20
-1703.5325462295
 10
1631.053719832
 20
-1713.157444973
 10
1629.8171004224
 20
-1722.6043251873
 10
1628.3352805328
 20
-1731.8658204793
 10
1626.6094156417
 20
-1740.9347090136
 10
1624.6408515267
 20
-1749.8039191438
 10
1622.4311232148
 20
-1758.4665349265
 10
1619.9819537857
 20
-1766.9158015145
 10
1617.2952530282
 20
-1775.145130424
 10
1614.3731159505
 20
-1783.1481046717
 10
1611.2178211473
 20
-1790.9184837791
 10
1607.8318290226
 20
-1798.4502086384
 10
1604.2177798711
 20
-1805.7374062369
 10
1600.3784918198
 20
-1812.7743942373
 10
1596.3169586299
 20
-1819.555685408
 10
1592.0363473628
 20
-1826.075991902
 10
1587.5399959104
 20
-1832.3302293806
 10
1582.8314103924
 20
-1838.3135209775
 10
1577.9142624221
 20
-1844.0212011018
 10
1572.7923862435
 20
-1849.4488190764
 10
1567.4697757417
 20
-1854.5921426079
 10
1561.9505813282
 20
-1859.4471610874
 10
1556.2391067048
 20
-1864.0100887176
 10
1550.3398055076
 20
-1868.2773674646
 10
1544.2572778342
 20
-1872.245669833
 10
1537.9962666567
 20
-1875.9119014599
 10
1531.5616541233
 20
-1879.2732035281
 10
1524.9584577513
 20
-1882.3269549955
 10
1518.1918265146
 20
-1885.0707746384
 10
1511.2670368287
 20
-1887.5025229089
 10
1504.1894884363
 20
-1889.6203036028
 10
1496.9647001967
 20
-1891.4224653385
 10
1489.5983057826
 20
-1892.9076028443
 10
1482.0960492865
 20
-1894.0745580548
 10
1474.4637807425
 20
-1894.9224210134
 10
1466.7074515641
 20
-1895.4505305821
 10
1458.8331099034
 20
-1895.6584749569
 10
1450.8468959351
 20
-1895.546091989
 10
1442.7550370687
 20
-1895.1134693113
 10
1434.5638430923
 20
-1894.3609442699
 10
1426.2797012526
 20
-1893.2891036613
 10
1417.9090712742
 20
-1891.8987832745
 10
1409.4584803225
 20
-1890.1910672395
 10
1400.9345179142
 20
-1888.1672871819
 10
1392.3438307788
 20
-1885.8290211846
 10
1383.6931176756
 20
-1883.1780925569
 10
1374.9891241706
 20
-1880.2165684134
 10
1366.2386373761
 20
-1876.9467580614
 10
1357.4484806583
 20
-1873.3712112007
 10
1348.6255083172
 20
-1869.4927159353
 10
1339.7766002411
 20
-1865.3142965989
 10
1330.9086565424
 20
-1860.8392113974
 10
1322.0285921769
 20
-1856.0709498676
 10
1313.1433315515
 20
-1851.0132301564
 10
1304.2598031253
 20
-1845.6699961214
 10
1295.3849340065
 20
-1840.0454142559
 10
1286.5256445511
 20
-1834.1438704396
 10
1277.6888429666
 20
-1827.9699665188
 10
1268.8814199248
 20
-1821.5285167181
 10
1260.1102431895
 20
-1814.8245438863
 10
1251.3821522604
 20
-1807.8632755797
 10
1242.7039530403
 20
-1800.650139986
 10
1234.0824125278
 20
-1793.1907616914
 10
1225.5242535409
 20
-1785.4909572946
 10
1217.0361494746
 20
-1777.5567308714
 10
1208.624719097
 20
-1769.3942692931
 10
1200.2965213887
 20
-1761.0099374016
 10
1192.0580504275
 20
-1752.4102730466
 10
1183.9157303254
 20
-1743.6019819879
 10
1175.8759102186
 20
-1734.5919326657
 10
1167.944859317
 20
-1725.3871508455
 10
1160.1287620156
 20
-1715.9948141394
 10
1152.4337130719
 20
-1706.4222464089
 10
1144.8657128536
 20
-1696.6769120543
 10
1137.4306626596
 20
-1686.7664101944
 10
1130.1343601184
 20
-1676.6984687403
 10
1122.9824946672
 20
-1666.4809383699
 10
1115.9806431157
 20
-1656.121786406
 10
1109.1342652969
 20
-1645.6290906038
 10
1102.4486998105
 20
-1635.0110328517
 10
1095.9291598592
 20
-1624.2758927919
 10
1089.5807291841
 20
-1613.4320413636
 10
1083.4083581007
 20
-1602.487934276
 10
1077.4168596381
 20
-1591.4521054146
 10
1071.6109057867
 20
-1580.3331601868
 10
1065.9950238546
 20
-1569.1397688115
 10
1060.5735929376
 20
-1557.8806595587
 10
1055.3508405044
 20
-1546.5646119431
 10
1050.3308391004
 20
-1535.2004498782
 10
1045.5175031715
 20
-1523.7970347958
 10
1040.9145860124
 20
-1512.3632587359
 10
1036.5256768394
 20
-1500.9080374132
 10
1032.3541979919
 20
-1489.4403032646
 10
1028.4034022635
 20
-1477.9689984843
 10
1024.676370366
 20
-1466.5030680507
 10
1021.1760085267
 20
-1455.0514527515
 10
1017.9050462225
 20
-1443.6230822117
 10
1014.8660340513
 20
-1432.226867931
 10
1012.0613417435
 20
-1420.8716963344
 10
1009.4931563138
 20
-1409.5664218432
 10
1007.1634803559
 20
-1398.3198599704
 10
1005.074130481
 20
-1387.1407804466
 10
1003.2267359013
 20
-1376.0379003817
 10
1001.6227371596
 20
-1365.0198774677
 10
1000.2633850057
 20
-1354.0953032273
 10
999.1497394217
 20
-1343.272696315
 10
998.2826687949
 20
-1332.560495874
 10
997.6628492408
 20
-1321.9670549561
 10
997.2907640761
 20
-1311.5006340078
 10
997.1667034416
 20
-1301.1693944294
  0
LWPOLYLINE
  5
115
330
1F
100
AcDbEntity
  8
0
  6
Continuous
 62
     7
370
    25
100
AcDbPolyline
 90
       40
 70
   128
 43
0.0
 10
1623.0293720132
 20
-1568.7122616004
 10
1622.9911421804
 20
-1568.6785309401
 10
1614.4329831935
 20
-1560.9787265433
 10
1605.9448791272
 20
-1553.0445001202
 10
1597.5334487496
 20
-1544.8820385419
 10
1589.2052510413
 20
-1536.4977066503
 10
1580.9667800801
 20
-1527.8980422954
 10
1572.824459978
 20
-1519.0897512366
 10
1564.7846398712
 20
-1510.0797019144
 10
1556.8535889696
 20
-1500.8749200943
 10
1549.0374916682
 20
-1491.4825833881
 10
1541.3424427245
 20
-1481.9100156576
 10
1533.7744425062
 20
-1472.1646813031
 10
1526.3393923122
 20
-1462.2541794431
 10
1519.043089771
 20
-1452.186237989
 10
1511.8912243198
 20
-1441.9687076186
 10
1504.8893727683
 20
-1431.6095556547
 10
1498.0429949495
 20
-1421.1168598525
 10
1491.3574294631
 20
-1410.4988021005
 10
1484.8378895118
 20
-1399.7636620407
 10
1478.4894588368
 20
-1388.9198106124
 10
1472.3170877533
 20
-1377.9757035248
 10
1466.3255892907
 20
-1366.9398746634
 10
1460.5196354393
 20
-1355.8209294355
 10
1454.9037535072
 20
-1344.6275380603
 10
1449.4823225902
 20
-1333.3684288075
 10
1444.259570157
 20
-1322.0523811919
 10
1439.239568753
 20
-1310.688219127
 10
1434.4262328241
 20
-1299.2848040446
 10
1429.823315665
 20
-1287.8510279847
 10
1425.434406492
 20
-1276.3958066619
 10
1421.2629276445
 20
-1264.9280725134
 10
1417.3121319161
 20
-1253.4567677331
 10
1413.5851000186
 20
-1241.9908372995
 10
1410.0847381793
 20
-1230.5392220002
 10
1406.8137758751
 20
-1219.1108514605
 10
1403.7747637039
 20
-1207.7146371797
 10
1400.9700713961
 20
-1196.3594655832
 10
1398.4018859664
 20
-1185.054191092
 10
1396.6088675906
 20
-1176.4979468273
  0
LWPOLYLINE
  5
116
330
1F
100
AcDbEntity
  8
0
  6
Continuous
 62
     7
370
    25
100
AcDbPolyline
 90
       28
 70
   128
 43
0.0
 10
1449.4482425733
 20
-812.2618154722
 10
1453.3589175421
 20
-810.1695880061
 10
1460.3663147668
 20
-806.734811989
 10
1467.5408737823
 20
-803.6109204701
 10
1474.8776775042
 20
-800.8000544087
 10
1482.3716976538
 20
-798.3041402321
 10
1490.0177982039
 20
-796.1248885149
 10
1497.8107388992
 20
-794.2637928077
 10
1505.7451788473
 20
-792.7221286123
 10
1513.8156801795
 20
-791.5009525084
 10
1522.0167117773
 20
-790.6011014292
 10
1530.3426530633
 20
-790.0231920876
 10
1538.7877978532
 20
-789.7676205537
 10
1547.3463582667
 20
-789.8345619836
 10
1556.0124686938
 20
-790.223970499
 10
1564.7801898155
 20
-790.9355792186
 10
1573.6435126736
 20
-791.9689004415
 10
1582.5963627893
 20
-793.3232259809
 10
1591.6326043265
 20
-794.9976276497
 10
1600.7460442965
 20
-796.9909578966
 10
1609.9304368027
 20
-799.3018505927
 10
1619.1794873215
 20
-801.9287219675
 10
1628.4868570154
 20
-804.8697716946
 10
1637.8461670782
 20
-808.1229841254
 10
1647.2510031064
 20
-811.6861296707
 10
1656.6949194951
 20
-815.5567663285
 10
1666.1714438557
 20
-819.7322413577
 10
1671.7821408033
 20
-822.3408674869
  0
ARC
  5
117
330
1F
100
AcDbEntity
  8
0
  6
Continuous
 62
     7
370
    25
100
AcDbCircle
 10
1464.063552512
 20
-1256.3516107214
 30
0.0
 40
481.176622168965
100
AcDbArc
 50
57.3045069314
 51
63.6332113683
  0
LWPOLYLINE
  5
118
330
1F
100
AcDbEntity
  8
0
  6
Continuous
 62
     7
370
    25
100
AcDbPolyline
 90
       89
 70
   128
 43
0.0
 10
1726.971624008
 20
-853.3424242642
 10
1732.8728878045
 20
-857.2298611496
 10
1742.3755254006
 20
-863.7239212443
 10
1751.8520497612
 20
-870.4898083484
 10
1761.2959661499
 20
-877.522885461
 10
1770.7008021781
 20
-884.8183324622
 10
1780.060112241
 20
-892.3711494171
 10
1789.3674819349
 20
-900.1761600023
 10
1798.6165324536
 20
-908.2280150533
 10
1807.8009249599
 20
-916.5211962309
 10
1816.9143649299
 20
-925.050019803
 10
1825.950606467
 20
-933.8086405399
 10
1834.9034565828
 20
-942.7910557205
 10
1843.7667794409
 20
-951.991109246
 10
1852.5345005625
 20
-961.4024958594
 10
1861.2006109897
 20
-971.0187654664
 10
1869.7591714031
 20
-980.8333275561
 10
1878.204316193
 20
-990.839455718
 10
1886.530257479
 20
-1001.0302922515
 10
1894.7312890768
 20
-1011.3988528664
 10
1902.801790409
 20
-1021.9380314692
 10
1910.7362303572
 20
-1032.6406050333
 10
1918.5291710525
 20
-1043.4992385493
 10
1926.1752716026
 20
-1054.5064900523
 10
1933.6692917521
 20
-1065.6548157219
 10
1941.006095474
 20
-1076.9365750526
 10
1948.1806544896
 20
-1088.34403609
 10
1955.1880517143
 20
-1099.8693807302
 10
1962.0234846282
 20
-1111.5047100777
 10
1968.682268567
 20
-1123.2420498589
 10
1975.1598399328
 20
-1135.0733558874
 10
1981.4517593217
 20
-1146.9905195771
 10
1987.5537145666
 20
-1158.9853734992
 10
1993.461523692
 20
-1171.0496969801
 10
1999.1711377807
 20
-1183.175221735
 10
2004.6786437484
 20
-1195.3536375349
 10
2009.9802670256
 20
-1207.5765979021
 10
2015.0723741445
 20
-1219.83572583
 10
2019.9514752294
 20
-1232.1226195246
 10
2024.6142263879
 20
-1244.4288581628
 10
2029.0574320034
 20
-1256.7460076634
 10
2033.2780469247
 20
-1269.0656264673
 10
2037.2731785531
 20
-1281.3792713232
 10
2041.0400888251
 20
-1293.6785030739
 10
2044.5761960883
 20
-1305.9548924404
 10
2047.8790768717
 20
-1318.2000257987
 10
2050.9464675456
 20
-1330.405510946
 10
2053.7762658737
 20
-1342.5629828524
 10
2056.3665324536
 20
-1354.6641093939
 10
2058.715492046
 20
-1366.7005970631
 10
2060.8215347912
 20
-1378.6641966523
 10
2062.6832173129
 20
-1390.546708908
 10
2064.2992637067
 20
-1402.3399901499
 10
2065.6685664152
 20
-1414.0359578522
 10
2066.7901869868
 20
-1425.6265961827
 10
2067.6633567187
 20
-1437.103961497
 10
2068.287477184
 20
-1448.4601877821
 10
2068.6621206417
 20
-1459.6874920478
 10
2068.7870303298
 20
-1470.7781796605
 10
2068.6621206417
 20
-1481.7246496171
 10
2068.287477184
 20
-1492.5193997537
 10
2067.6633567187
 20
-1503.1550318879
 10
2066.7901869868
 20
-1513.6242568886
 10
2065.6685664152
 20
-1523.9198996719
 10
2064.2992637067
 20
-1534.0349041186
 10
2062.6832173129
 20
-1543.9623379099
 10
2060.8215347912
 20
-1553.6953972786
 10
2058.715492046
 20
-1563.2274116719
 10
2056.3665324536
 20
-1572.5518483233
 10
2053.7762658737
 20
-1581.6623167296
 10
2050.9464675456
 20
-1590.552573031
 10
2047.8790768717
 20
-1599.2165242899
 10
2044.5761960883
 20
-1607.6482326667
 10
2041.0400888251
 20
-1615.8419194898
 10
2037.2731785531
 20
-1623.7919692155
 10
2033.2780469247
 20
-1631.4929332769
 10
2029.0574320034
 20
-1638.9395338178
 10
2024.6142263879
 20
-1646.1266673101
 10
2019.9514752294
 20
-1653.0494080517
 10
2015.0723741445
 20
-1659.7030115418
 10
2009.9802670256
 20
-1666.0829177328
 10
2004.6786437484
 20
-1672.1847541559
 10
1999.1711377807
 20
-1678.0043389171
 10
1993.461523692
 20
-1683.5376835637
 10
1987.5537145666
 20
-1688.7809958177
 10
1981.4517593217
 20
-1693.7306821747
 10
1975.1598399328
 20
-1698.383350367
 10
1968.682268567
 20
-1702.7358116883
 10
1964.8740776031
 20
-1705.1021211897
  0
SPLINE
  5
119
330
1F
100
AcDbEntity
  8
0
  6
Continuous
 62
     7
370
    25
100
AcDbSpline
210
0.0
220
0.0
230
1.0
 70
     8
 71
     3
 72
    12
 73
     8
 74
     0
 42
0.00000001
 43
0.00000001
 40
0.0
 40
0.0
 40
0.0
 40
0.0
 40
0.2408907683122259
 40
0.4817824307162039
 40
0.7225843117694521
 40
0.9629066105891331
 40
1.0
 40
1.0
 40
1.0
 40
1.0
 10
1719.384219949391
 20
-863.5825942780112
 30
0.0
 10
1718.619730698625
 20
-863.4165678277096
 30
0.0
 10
1717.090749359611
 20
-863.0845143108811
 30
0.0
 10
1715.204450500281
 20
-862.0534752823716
 30
0.0
 10
1713.98640216524
 20
-860.77392650572
 30
0.0
 10
1713.448779990412
 20
-859.7256661758913
 30
0.0
 10
1713.572247692116
 20
-859.1891244518005
 30
0.0
 10
1713.588756619813
 20
-859.1173831914781
 30
0.0
  0
SPLINE
  5
11A
330
1F
100
AcDbEntity
  8
0
  6
Continuous
 62
     7
370
    25
100
AcDbSpline
210
0.0
220
0.0
230
1.0
 70
     8
 71
     3
 72
    13
 73
     9
 74
     0
 42
0.00000001
 43
0.00000001
 40
0.0
 40
0.0
 40
0.0
 40
0.0
 40
0.1037228226971081
 40
0.2978368451209868
 40
0.491445791828053
 40
0.6848913758553077
 40
0.8786472321666349
 40
1.0
 40
1.0
 40
1.0
 40
1.0
 10
1727.43761919606
 20
-859.7780387506268
 30
0.0
 10
1727.45423703228
 20
-860.0367701727429
 30
0.0
 10
1727.501954629852
 20
-860.7797093686967
 30
0.0
 10
1726.713533156943
 20
-861.9049856729099
 30
0.0
 10
1725.229642363579
 20
-862.9627426012371
 30
0.0
 10
1723.186011193583
 20
-863.6099644740535
 30
0.0
 10
1721.138617925988
 20
-863.7864329878109
 30
0.0
 10
1719.872008913671
 20
-863.639269145664
 30
0.0
 10
1719.384219949391
 20
-863.5825942780114
 30
0.0
  0
SPLINE
  5
11B
330
1F
100
AcDbEntity
  8
0
  6
Continuous
 62
     7
370
    25
100
AcDbSpline
210
0.0
220
0.0
230
1.0
 70
     8
 71
     3
 72
    13
 73
     9
 74
     0
 42
0.00000001
 43
0.00000001
 40
0.0
 40
0.0
 40
0.0
 40
0.0
 40
0.1916344607334427
 40
0.3832591894479419
 40
0.575144698553662
 40
0.7674798294262315
 40
0.9601490287069546
 40
1.0
 40
1.0
 40
1.0
 40
1.0
 10
1672.335988135528
 20
-834.4812098366885
 30
0.0
 10
1671.548394991808
 20
-834.5378972611344
 30
0.0
 10
1669.973248701723
 20
-834.6512692311958
 30
0.0
 10
1667.696991080864
 20
-834.2885968523406
 30
0.0
 10
1665.788524939507
 20
-833.5764364396508
 30
0.0
 10
1664.534326976247
 20
-832.5572027133253
 30
0.0
 10
1663.966507389028
 20
-831.6718700932149
 30
0.0
 10
1664.08466722346
 20
-831.173602337905
 30
0.0
 10
1664.104918301714
 20
-831.0882056432265
 30
0.0
  0
SPLINE
  5
11C
330
1F
100
AcDbEntity
  8
0
  6
Continuous
 62
     7
370
    25
100
AcDbSpline
210
0.0
220
0.0
230
1.0
 70
     8
 71
     3
 72
    12
 73
     8
 74
     0
 42
0.00000001
 43
0.00000001
 40
0.0
 40
0.0
 40
0.0
 40
0.0
 40
0.1173257056599314
 40
0.3613131266167114
 40
0.6048952104987131
 40
0.8481522135025297
 40
1.0
 40
1.0
 40
1.0
 40
1.0
 10
1677.939807540683
 20
-830.6626229181709
 30
0.0
 10
1677.960286383199
 20
-830.8644061650919
 30
0.0
 10
1678.023352482633
 20
-831.4858124923222
 30
0.0
 10
1677.273701357833
 20
-832.5112596133611
 30
0.0
 10
1675.820910758683
 20
-833.5486855472277
 30
0.0
 10
1674.046145536385
 20
-834.207367341778
 30
0.0
 10
1672.810770826529
 20
-834.4051842751943
 30
0.0
 10
1672.335988135528
 20
-834.4812098366887
 30
0.0
  0
LWPOLYLINE
  5
11D
330
1F
100
AcDbEntity
  8
0
  6
Continuous
 62
     7
370
    25
100
AcDbPolyline
 90
       29
 70
   128
 43
0.0
 10
1353.5485211597
 20
-1066.7912623035
 10
1354.5258430859
 20
-1067.4987416334
 10
1355.2059570035
 20
-1068.3140283867
 10
1355.5547591606
 20
-1069.1962406811
 10
1355.5547591606
 20
-1070.1011407086
 10
1355.2059570035
 20
-1070.983353003
 10
1354.5258430859
 20
-1071.7986397563
 10
1353.5485211597
 20
-1072.5061190862
 10
1352.322998227
 20
-1073.070315025
 10
1350.910727125
 20
-1073.4629364324
 10
1349.3825250241
 20
-1073.6642956317
 10
1347.8150223586
 20
-1073.6642956317
 10
1346.2868202577
 20
-1073.4629364324
 10
1344.8745491557
 20
-1073.070315025
 10
1343.649026223
 20
-1072.5061190862
 10
1342.6717042967
 20
-1071.7986397563
 10
1341.9915903792
 20
-1070.983353003
 10
1341.6427882221
 20
-1070.1011407086
 10
1341.6427882221
 20
-1069.1962406811
 10
1341.9915903792
 20
-1068.3140283867
 10
1342.6717042967
 20
-1067.4987416334
 10
1343.649026223
 20
-1066.7912623035
 10
1344.8745491557
 20
-1066.2270663647
 10
1346.2868202577
 20
-1065.8344449572
 10
1347.8150223586
 20
-1065.633085758
 10
1349.3825250241
 20
-1065.633085758
 10
1350.910727125
 20
-1065.8344449572
 10
1352.322998227
 20
-1066.2270663647
 10
1353.5485211597
 20
-1066.7912623035
  0
LWPOLYLINE
  5
11E
330
1F
100
AcDbEntity
  8
0
  6
Continuous
 62
     7
370
    25
100
AcDbPolyline
 90
       24
 70
   128
 43
0.0
 10
1352.1343075973
 20
-1067.6076704153
 10
1352.9570760415
 20
-1068.2340176651
 10
1353.4566091383
 20
-1068.9652847419
 10
1353.5958588032
 20
-1069.7472369118
 10
1353.3644975254
 20
-1070.5218803596
 10
1352.7796843126
 20
-1071.2317633246
 10
1351.8847920854
 20
-1071.8242370346
 10
1350.7461909065
 20
-1072.2553604252
 10
1349.4483256165
 20
-1072.4931590465
 10
1348.0874529466
 20
-1072.5199964628
 10
1346.7645025973
 20
-1072.3338822656
 10
1345.5775917437
 20
-1071.9486196936
 10
1344.6147481343
 20
-1071.3927819092
 10
1343.9473814747
 20
-1070.7075928581
 10
1343.6249872971
 20
-1069.9438698777
 10
1343.6714761028
 20
-1069.1582548077
 10
1344.0834000297
 20
-1068.4090131238
 10
1344.8302085647
 20
-1067.7517126542
 10
1345.8565143351
 20
-1067.2351023679
 10
1347.0862009369
 20
-1066.8974968862
 10
1348.4280681404
 20
-1066.7639348635
 10
1349.7825957937
 20
-1066.844321984
 10
1351.0493247772
 20
-1067.1326963025
 10
1352.1343075973
 20
-1067.6076704153
  0
SPLINE
  5
11F
330
1F
100
AcDbEntity
  8
0
  6
Continuous
 62
     7
370
    25
100
AcDbSpline
210
0.0
220
0.0
230
1.0
 70
     8
 71
     3
 72
    12
 73
     8
 74
     0
 42
0.00000001
 43
0.00000001
 40
0.0
 40
0.0
 40
0.0
 40
0.0
 40
0.0822727659767467
 40
0.3194522904071518
 40
0.556536018665145
 40
0.7937885314382925
 40
1.0
 40
1.0
 40
1.0
 40
1.0
 10
1345.311051299462
 20
-1071.759479457729
 30
0.0
 10
1345.44397409539
 20
-1071.674682314921
 30
0.0
 10
1345.9600925351
 20
-1071.345428263855
 30
0.0
 10
1347.229703254251
 20
-1071.060082626877
 30
0.0
 10
1348.89951003867
 20
-1070.982322604465
 30
0.0
 10
1350.520270787651
 20
-1071.240675824517
 30
0.0
 10
1351.368239247717
 20
-1071.653484813577
 30
0.0
 10
1351.762545953118
 20
-1071.845441661151
 30
0.0
  0
LWPOLYLINE
  5
120
330
1F
100
AcDbEntity
  8
0
  6
Continuous
 62
     7
370
    25
100
AcDbPolyline
 90
       29
 70
   128
 43
0.0
 10
1294.15155154
 20
-1043.9318351724
 10
1293.1742296137
 20
-1043.2243558425
 10
1292.4941156961
 20
-1042.4090690892
 10
1292.145313539
 20
-1041.5268567948
 10
1292.145313539
 20
-1040.6219567673
 10
1292.4941156961
 20
-1039.7397444729
 10
1293.1742296137
 20
-1038.9244577196
 10
1294.15155154
 20
-1038.2169783897
 10
1295.3770744727
 20
-1037.6527824509
 10
1296.7893455746
 20
-1037.2601610434
 10
1298.3175476756
 20
-1037.0588018442
 10
1299.885050341
 20
-1037.0588018442
 10
1301.413252442
 20
-1037.2601610434
 10
1302.8255235439
 20
-1037.6527824509
 10
1304.0510464766
 20
-1038.2169783897
 10
1305.0283684029
 20
-1038.9244577196
 10
1305.7084823204
 20
-1039.7397444729
 10
1306.0572844775
 20
-1040.6219567673
 10
1306.0572844775
 20
-1041.5268567948
 10
1305.7084823204
 20
-1042.4090690892
 10
1305.0283684029
 20
-1043.2243558425
 10
1304.0510464766
 20
-1043.9318351724
 10
1302.8255235439
 20
-1044.4960311112
 10
1301.413252442
 20
-1044.8886525187
 10
1299.885050341
 20
-1045.0900117179
 10
1298.3175476756
 20
-1045.0900117179
 10
1296.7893455746
 20
-1044.8886525187
 10
1295.3770744727
 20
-1044.4960311112
 10
1294.15155154
 20
-1043.9318351724
  0
LWPOLYLINE
  5
121
330
1F
100
AcDbEntity
  8
0
  6
Continuous
 62
     7
370
    25
100
AcDbPolyline
 90
       24
 70
   128
 43
0.0
 10
1295.5657651024
 20
-1043.1154270606
 10
1294.7429966581
 20
-1042.4890798108
 10
1294.2434635613
 20
-1041.757812734
 10
1294.1042138965
 20
-1040.9758605641
 10
1294.3355751742
 20
-1040.2012171163
 10
1294.920388387
 20
-1039.4913341513
 10
1295.8152806142
 20
-1038.8988604412
 10
1296.9538817931
 20
-1038.4677370507
 10
1298.2517470831
 20
-1038.2299384294
 10
1299.612619753
 20
-1038.2031010131
 10
1300.9355701024
 20
-1038.3892152103
 10
1302.1224809559
 20
-1038.7744777823
 10
1303.0853245654
 20
-1039.3303155667
 10
1303.752691225
 20
-1040.0155046178
 10
1304.0750854026
 20
-1040.7792275982
 10
1304.0285965969
 20
-1041.5648426682
 10
1303.6166726699
 20
-1042.3140843521
 10
1302.8698641349
 20
-1042.9713848216
 10
1301.8435583645
 20
-1043.487995108
 10
1300.6138717627
 20
-1043.8256005896
 10
1299.2720045592
 20
-1043.9591626124
 10
1297.917476906
 20
-1043.8787754919
 10
1296.6507479224
 20
-1043.5904011734
 10
1295.5657651024
 20
-1043.1154270606
  0
SPLINE
  5
122
330
1F
100
AcDbEntity
  8
0
  6
Continuous
 62
     7
370
    25
100
AcDbSpline
210
0.0
220
0.0
230
1.0
 70
     8
 71
     3
 72
    12
 73
     8
 74
     0
 42
0.00000001
 43
0.00000001
 40
0.0
 40
0.0
 40
0.0
 40
0.0
 40
0.0408563574818131
 40
0.3058027106089884
 40
0.57138835794721
 40
0.837762114375956
 40
0.9999999999999999
 40
0.9999999999999999
 40
0.9999999999999999
 40
0.9999999999999999
 10
1296.352270239624
 20
-1043.459751266505
 30
0.0
 10
1296.416893889597
 20
-1043.425379870869
 30
0.0
 10
1296.900590639608
 20
-1043.168115968731
 30
0.0
 10
1298.116267474173
 20
-1042.911419030978
 30
0.0
 10
1299.78523127604
 20
-1042.786099056488
 30
0.0
 10
1301.24824154603
 20
-1042.932608508971
 30
0.0
 10
1301.942375950298
 20
-1043.217236111449
 30
0.0
 10
1302.205119392235
 20
-1043.32497322329
 30
0.0
  0
LWPOLYLINE
  5
123
330
1F
100
AcDbEntity
  8
0
  6
Continuous
 62
     7
370
    25
100
AcDbPolyline
 90
       29
 70
   128
 43
0.0
 10
1715.5871931272
 20
-857.7907856768
 10
1714.6098712009
 20
-857.0833063469
 10
1713.9297572833
 20
-856.2680195937
 10
1713.5809551262
 20
-855.3858072992
 10
1713.5809551262
 20
-854.4809072718
 10
1713.9297572833
 20
-853.5986949773
 10
1714.6098712009
 20
-852.783408224
 10
1715.5871931272
 20
-852.0759288941
 10
1716.8127160599
 20
-851.5117329553
 10
1718.2249871618
 20
-851.1191115479
 10
1719.7531892627
 20
-850.9177523486
 10
1721.3206919282
 20
-850.9177523486
 10
1722.8488940292
 20
-851.1191115479
 10
1724.2611651311
 20
-851.5117329553
 10
1725.4866880638
 20
-852.0759288941
 10
1726.4640099901
 20
-852.783408224
 10
1727.1441239076
 20
-853.5986949773
 10
1727.4929260647
 20
-854.4809072718
 10
1727.4929260647
 20
-855.3858072992
 10
1727.1441239076
 20
-856.2680195937
 10
1726.4640099901
 20
-857.0833063469
 10
1725.4866880638
 20
-857.7907856768
 10
1724.2611651311
 20
-858.3549816157
 10
1722.8488940292
 20
-858.7476030231
 10
1721.3206919282
 20
-858.9489622223
 10
1719.7531892627
 20
-858.9489622223
 10
1718.2249871618
 20
-858.7476030231
 10
1716.8127160599
 20
-858.3549816156
 10
1715.5871931272
 20
-857.7907856768
  0
LWPOLYLINE
  5
124
330
1F
100
AcDbEntity
  8
0
  6
Continuous
 62
     7
370
    25
100
AcDbPolyline
 90
       24
 70
   128
 43
0.0
 10
1717.0014066895
 20
-856.974377565
 10
1716.1786382453
 20
-856.3480303152
 10
1715.6791051485
 20
-855.6167632384
 10
1715.5398554836
 20
-854.8348110685
 10
1715.7712167614
 20
-854.0601676207
 10
1716.3560299742
 20
-853.3502846558
 10
1717.2509222014
 20
-852.7578109457
 10
1718.3895233803
 20
-852.3266875551
 10
1719.6873886703
 20
-852.0888889338
 10
1721.0482613402
 20
-852.0620515175
 10
1722.3712116895
 20
-852.2481657147
 10
1723.5581225431
 20
-852.6334282867
 10
1724.5209661526
 20
-853.1892660711
 10
1725.1883328122
 20
-853.8744551222
 10
1725.5107269898
 20
-854.6381781026
 10
1725.4642381841
 20
-855.4237931726
 10
1725.0523142571
 20
-856.1730348565
 10
1724.3055057221
 20
-856.8303353261
 10
1723.2791999517
 20
-857.3469456125
 10
1722.0495133499
 20
-857.6845510941
 10
1720.7076461464
 20
-857.8181131168
 10
1719.3531184931
 20
-857.7377259964
 10
1718.0863895096
 20
-857.4493516778
 10
1717.0014066895
 20
-856.974377565
  0
SPLINE
  5
125
330
1F
100
AcDbEntity
  8
0
  6
Continuous
 62
     7
370
    25
100
AcDbSpline
210
0.0
220
0.0
230
1.0
 70
     8
 71
     3
 72
    12
 73
     8
 74
     0
 42
0.00000001
 43
0.00000001
 40
0.0
 40
0.0
 40
0.0
 40
0.0
 40
0.0803669145722237
 40
0.3204397728177722
 40
0.5608088999944107
 40
0.8016024469536959
 40
1.0
 40
1.0
 40
1.0
 40
1.0
 10
1717.214180993933
 20
-857.0675280607142
 30
0.0
 10
1717.340766179633
 20
-856.9893363952693
 30
0.0
 10
1717.845487909507
 20
-856.6775697977235
 30
0.0
 10
1719.102684806438
 20
-856.4148318469341
 30
0.0
 10
1720.769586138879
 20
-856.3561531414521
 30
0.0
 10
1722.373380672071
 20
-856.6179777892382
 30
0.0
 10
1723.21098767131
 20
-857.0187054729738
 30
0.0
 10
1723.589363232794
 20
-857.1997277930758
 30
0.0
  0
LWPOLYLINE
  5
126
330
1F
100
AcDbEntity
  8
0
  6
Continuous
 62
     7
370
    25
100
AcDbPolyline
 90
       29
 70
   128
 43
0.0
 10
1675.9892133807
 20
-823.5016449803
 10
1676.966535307
 20
-824.2091243102
 10
1677.6466492246
 20
-825.0244110635
 10
1677.9954513817
 20
-825.906623358
 10
1677.9954513817
 20
-826.8115233854
 10
1677.6466492246
 20
-827.6937356799
 10
1676.966535307
 20
-828.5090224331
 10
1675.9892133807
 20
-829.2165017631
 10
1674.763690448
 20
-829.7806977019
 10
1673.3514193461
 20
-830.1733191093
 10
1671.8232172451
 20
-830.3746783085
 10
1670.2557145797
 20
-830.3746783085
 10
1668.7275124787
 20
-830.1733191093
 10
1667.3152413768
 20
-829.7806977019
 10
1666.0897184441
 20
-829.2165017631
 10
1665.1123965178
 20
-828.5090224331
 10
1664.4322826003
 20
-827.6937356799
 10
1664.0834804432
 20
-826.8115233854
 10
1664.0834804432
 20
-825.906623358
 10
1664.4322826003
 20
-825.0244110635
 10
1665.1123965178
 20
-824.2091243102
 10
1666.0897184441
 20
-823.5016449803
 10
1667.3152413768
 20
-822.9374490415
 10
1668.7275124787
 20
-822.5448276341
 10
1670.2557145797
 20
-822.3434684348
 10
1671.8232172451
 20
-822.3434684348
 10
1673.3514193461
 20
-822.5448276341
 10
1674.763690448
 20
-822.9374490415
 10
1675.9892133807
 20
-823.5016449803
  0
LWPOLYLINE
  5
127
330
1F
100
AcDbEntity
  8
0
  6
Continuous
 62
     7
370
    25
100
AcDbPolyline
 90
       24
 70
   128
 43
0.0
 10
1674.5749998183
 20
-824.3180530921
 10
1675.3977682626
 20
-824.944400342
 10
1675.8973013594
 20
-825.6756674187
 10
1676.0365510242
 20
-826.4576195886
 10
1675.8051897465
 20
-827.2322630364
 10
1675.2203765337
 20
-827.9421460014
 10
1674.3254843065
 20
-828.5346197115
 10
1673.1868831276
 20
-828.965743102
 10
1671.8890178376
 20
-829.2035417234
 10
1670.5281451677
 20
-829.2303791396
 10
1669.2051948183
 20
-829.0442649425
 10
1668.0182839648
 20
-828.6590023704
 10
1667.0554403553
 20
-828.103164586
 10
1666.3880736957
 20
-827.4179755349
 10
1666.0656795181
 20
-826.6542525545
 10
1666.1121683238
 20
-825.8686374845
 10
1666.5240922508
 20
-825.1193958006
 10
1667.2709007858
 20
-824.4620953311
 10
1668.2972065562
 20
-823.9454850447
 10
1669.526893158
 20
-823.6078795631
 10
1670.8687603615
 20
-823.4743175404
 10
1672.2232880147
 20
-823.5547046608
 10
1673.4900169983
 20
-823.8430789794
 10
1674.5749998183
 20
-824.3180530921
  0
SPLINE
  5
128
330
1F
100
AcDbEntity
  8
0
  6
Continuous
 62
     7
370
    25
100
AcDbSpline
210
0.0
220
0.0
230
1.0
 70
     8
 71
     3
 72
    12
 73
     8
 74
     0
 42
0.00000001
 43
0.00000001
 40
0.0
 40
0.0
 40
0.0
 40
0.0
 40
0.1269150855164627
 40
0.4074703502845206
 40
0.6883547747445806
 40
0.969952270618768
 40
1.0
 40
1.0
 40
1.0
 40
1.0
 10
1668.393271889905
 20
-828.7507169387862
 30
0.0
 10
1668.598457685234
 20
-828.6652945043581
 30
0.0
 10
1669.257221988592
 20
-828.391039405865
 30
0.0
 10
1670.659012321846
 20
-828.1927330755127
 30
0.0
 10
1672.314382677759
 20
-828.2240485355725
 30
0.0
 10
1673.48774733554
 20
-828.401069407395
 30
0.0
 10
1673.928650726179
 20
-828.6176690067305
 30
0.0
 10
1673.971161070287
 20
-828.6385527733262
 30
0.0
  0
LWPOLYLINE
  5
129
330
1F
100
AcDbEntity
  8
0
  6
Continuous
 62
     1
370
    25
100
AcDbPolyline
 90
      122
 70
   128
 43
0.0
 10
1235.1804162148
 20
-933.6093104396
 10
1242.0211697624
 20
-929.8637208247
 10
1249.0557537853
 20
-926.4156188094
 10
1256.2581481413
 20
-923.2796074398
 10
1263.6234166691
 20
-920.4578359815
 10
1271.1465115816
 20
-917.9522383357
 10
1278.8222769254
 20
-915.7645317138
 10
1286.6454521141
 20
-913.8962154606
 10
1294.6106755344
 20
-912.3485700268
 10
1302.71248822
 20
-911.1226560913
 10
1310.9453375932
 20
-910.2193138343
 10
1319.3035812702
 20
-909.6391623613
 10
1327.7814909283
 20
-909.3825992794
 10
1336.3732562318
 20
-909.4498004238
 10
1345.0729888139
 20
-909.8407197385
 10
1353.8747263124
 20
-910.5550893067
 10
1362.772436456
 20
-911.5924195353
 10
1371.7600211988
 20
-912.95199949
 10
1380.8313208991
 20
-914.6328973825
 10
1389.9801185411
 20
-916.6339612094
 10
1399.200143996
 20
-918.9538195415
 10
1408.4850783188
 20
-921.5908824639
 10
1417.8285580794
 20
-924.5433426652
 10
1427.2241797235
 20
-927.8091766768
 10
1436.6655039613
 20
-931.3861462591
 10
1446.1460601808
 20
-935.2717999359
 10
1455.6593508823
 20
-939.4634746742
 10
1465.1988561316
 20
-943.9582977096
 10
1474.7580380283
 20
-948.7531885148
 10
1484.3303451865
 20
-953.8448609112
 10
1493.9092172252
 20
-959.229825321
 10
1503.4880892639
 20
-964.9043911584
 10
1513.0603964221
 20
-970.8646693595
 10
1522.6195783188
 20
-977.1065750473
 10
1532.159083568
 20
-983.6258303315
 10
1541.6723742695
 20
-990.4179672401
 10
1551.152930489
 20
-997.4783307818
 10
1560.5942547268
 20
-1004.8020821361
 10
1569.9898763709
 20
-1012.3842019696
 10
1579.3333561316
 20
-1020.2194938761
 10
1588.6182904544
 20
-1028.302587938
 10
1597.8383159093
 20
-1036.6279444063
 10
1606.9871135513
 20
-1045.1898574976
 10
1616.0584132516
 20
-1053.9824593043
 10
1625.0459979943
 20
-1062.9997238163
 10
1633.943708138
 20
-1072.235471051
 10
1642.7454456365
 20
-1081.6833712885
 10
1651.4451782185
 20
-1091.3369494099
 10
1660.036943522
 20
-1101.1895893351
 10
1668.5148531802
 20
-1111.2345385568
 10
1676.8730968572
 20
-1121.4649127684
 10
1685.1059462304
 20
-1131.8737005826
 10
1693.207758916
 20
-1142.4537683361
 10
1701.1729823363
 20
-1153.197864979
 10
1708.996157525
 20
-1164.0986270441
 10
1716.6719228687
 20
-1175.1485836936
 10
1724.1950177812
 20
-1186.3401618391
 10
1731.560286309
 20
-1197.6656913321
 10
1738.7626806651
 20
-1209.1174102203
 10
1745.7972646879
 20
-1220.6874700676
 10
1752.6592172252
 20
-1232.367941333
 10
1759.3438354373
 20
-1244.1508188049
 10
1765.8465380208
 20
-1256.0280270877
 10
1772.1628683482
 20
-1267.991426136
 10
1778.2884975222
 20
-1280.0328168338
 10
1784.2192273426
 20
-1292.1439466133
 10
1789.9509931833
 20
-1304.3165151112
 10
1795.4798667784
 20
-1316.542179857
 10
1800.8020589141
 20
-1328.8125619909
 10
1805.9139220258
 20
-1341.1192520057
 10
1810.8119526978
 20
-1353.453815511
 10
1815.4927940645
 20
-1365.807799013
 10
1819.9532381111
 20
-1378.1727357086
 10
1824.190227872
 20
-1390.5401512876
 10
1828.2008595262
 20
-1402.9015697414
 10
1831.9823843869
 20
-1415.2485191711
 10
1835.5322107861
 20
-1427.5725375943
 10
1838.8479058499
 20
-1439.8651787445
 10
1841.9271971665
 20
-1452.1180178593
 10
1844.7679743436
 20
-1464.322657455
 10
1847.3682904544
 20
-1476.4707330811
 10
1849.7263633721
 20
-1488.5539190535
 10
1851.8405769912
 20
-1500.56393416
 10
1853.7094823354
 20
-1512.4925473363
 10
1855.3317985504
 20
-1524.3315833066
 10
1856.7064137815
 20
-1536.0729281871
 10
1857.8323859363
 20
-1547.7085350466
 10
1858.7089433296
 20
-1559.2304294212
 10
1859.3354852128
 20
-1570.6307147802
 10
1859.7115821854
 20
-1581.9015779373
 10
1859.8369764892
 20
-1593.035294406
 10
1859.7115821854
 20
-1604.0242336931
 10
1859.3354852128
 20
-1614.8608645286
 10
1858.7089433296
 20
-1625.537760027
 10
1857.8323859363
 20
-1636.0476027775
 10
1856.7064137815
 20
-1646.3831898587
 10
1855.3317985504
 20
-1656.5374377757
 10
1853.7094823354
 20
-1666.503387314
 10
1851.8405769912
 20
-1676.2742083096
 10
1849.7263633721
 20
-1685.8432043301
 10
1847.3682904544
 20
-1695.2038172633
 10
1844.7679743436
 20
-1704.3496318129
 10
1841.9271971665
 20
-1713.2743798943
 10
1838.8479058499
 20
-1721.9719449311
 10
1835.5322107861
 20
-1730.4363660465
 10
1831.9823843869
 20
-1738.6618421493
 10
1828.2008595262
 20
-1746.6427359088
 10
1824.190227872
 20
-1754.3735776193
 10
1819.9532381111
 20
-1761.8490689479
 10
1815.4927940645
 20
-1769.0640865663
 10
1810.8119526978
 20
-1776.0136856619
 10
1805.9139220258
 20
-1782.6931033265
 10
1800.8020589141
 20
-1789.097761821
 10
1795.4798667784
 20
-1795.2232717122
 10
1789.9509931833
 20
-1801.0654348818
 10
1784.2192273426
 20
-1806.6202474029
 10
1778.2884975222
 20
-1811.8839022844
 10
1772.1628683482
 20
-1816.8527920803
 10
1765.8465380208
 20
-1821.5235113616
 10
1759.3438354373
 20
-1825.8928590507
 10
1752.6592172252
 20
-1829.957840615
 10
1752.6381973886
 20
-1829.9699770814
  0
LWPOLYLINE
  5
12A
330
1F
100
AcDbEntity
  8
0
  6
Continuous
 62
     1
370
    25
100
AcDbPolyline
 90
      122
 70
   128
 43
0.0
 10
1267.000050309
 20
-915.2402266738
 10
1273.8409749158
 20
-911.4945383086
 10
1280.8755589387
 20
-908.0464362934
 10
1288.0779532947
 20
-904.9104249238
 10
1295.4432218225
 20
-902.0886534655
 10
1302.966316735
 20
-899.5830558197
 10
1310.6420820787
 20
-897.3953491977
 10
1318.4652572675
 20
-895.5270329446
 10
1326.4304806878
 20
-893.9793875108
 10
1334.5322933734
 20
-892.7534735753
 10
1342.7651427466
 20
-891.8501313183
 10
1351.1233864236
 20
-891.2699798453
 10
1359.6012960817
 20
-891.0134167633
 10
1368.1930613852
 20
-891.0806179078
 10
1376.8927939673
 20
-891.4715372225
 10
1385.6945314657
 20
-892.1859067907
 10
1394.5922416094
 20
-893.2232370193
 10
1403.5798263522
 20
-894.5828169739
 10
1412.6511260524
 20
-896.2637148665
 10
1421.7999236945
 20
-898.2647786934
 10
1431.0199491494
 20
-900.5846370255
 10
1440.3048834722
 20
-903.2216999478
 10
1449.6483632328
 20
-906.1741601492
 10
1459.0439848769
 20
-909.4399941607
 10
1468.4853091147
 20
-913.0169637431
 10
1477.9658653342
 20
-916.9026174199
 10
1487.4791560357
 20
-921.0942921582
 10
1497.018661285
 20
-925.5891151936
 10
1506.5778431817
 20
-930.3840059988
 10
1516.1501503399
 20
-935.4756783952
 10
1525.7290223786
 20
-940.860642805
 10
1535.3078944172
 20
-946.5352086424
 10
1544.8802015755
 20
-952.4954868435
 10
1554.4393834722
 20
-958.7373925313
 10
1563.9788887214
 20
-965.2566478155
 10
1573.4921794229
 20
-972.0487847241
 10
1582.9727356424
 20
-979.1091482658
 10
1592.4140598802
 20
-986.4328996201
 10
1601.8096815243
 20
-994.0150194536
 10
1611.1531612849
 20
-1001.8503113601
 10
1620.4380956078
 20
-1009.933405422
 10
1629.6581210627
 20
-1018.2587618903
 10
1638.8069187047
 20
-1026.8206749816
 10
1647.878218405
 20
-1035.6132767883
 10
1656.8658031477
 20
-1044.6305413003
 10
1665.7635132914
 20
-1053.866288535
 10
1674.5652507899
 20
-1063.3141887725
 10
1683.2649833719
 20
-1072.9677668939
 10
1691.8567486754
 20
-1082.8204068191
 10
1700.3346583336
 20
-1092.8653560407
 10
1708.6929020106
 20
-1103.0957302524
 10
1716.9257513838
 20
-1113.5045180666
 10
1725.0275640694
 20
-1124.0845858201
 10
1732.9927874897
 20
-1134.828682463
 10
1740.8159626784
 20
-1145.7294445281
 10
1748.4917280221
 20
-1156.7794011776
 10
1756.0148229346
 20
-1167.9709793231
 10
1763.3800914624
 20
-1179.2965088161
 10
1770.5824858185
 20
-1190.7482277043
 10
1777.6170698413
 20
-1202.3182875516
 10
1784.4790223786
 20
-1213.998758817
 10
1791.1636405907
 20
-1225.7816362889
 10
1797.6663431742
 20
-1237.6588445716
 10
1803.9826735016
 20
-1249.62224362
 10
1810.1083026756
 20
-1261.6636343177
 10
1816.039032496
 20
-1273.7747640973
 10
1821.7707983367
 20
-1285.9473325952
 10
1827.2996719318
 20
-1298.172997341
 10
1832.6218640675
 20
-1310.4433794749
 10
1837.7337271792
 20
-1322.7500694897
 10
1842.6317578512
 20
-1335.084632995
 10
1847.3125992179
 20
-1347.438616497
 10
1851.7730432645
 20
-1359.8035531926
 10
1856.0100330254
 20
-1372.1709687716
 10
1860.0206646796
 20
-1384.5323872254
 10
1863.8021895403
 20
-1396.8793366551
 10
1867.3520159395
 20
-1409.2033550783
 10
1870.6677110032
 20
-1421.4959962285
 10
1873.7470023199
 20
-1433.7488353433
 10
1876.587779497
 20
-1445.953474939
 10
1879.1880956078
 20
-1458.1015505651
 10
1881.5461685254
 20
-1470.1847365375
 10
1883.6603821446
 20
-1482.194751644
 10
1885.5292874888
 20
-1494.1233648203
 10
1887.1516037038
 20
-1505.9624007906
 10
1888.5262189349
 20
-1517.7037456711
 10
1889.6521910897
 20
-1529.3393525306
 10
1890.528748483
 20
-1540.8612469052
 10
1891.1552903662
 20
-1552.2615322641
 10
1891.5313873388
 20
-1563.5323954213
 10
1891.6567816426
 20
-1574.66611189
 10
1891.5313873388
 20
-1585.6550511771
 10
1891.1552903662
 20
-1596.4916820126
 10
1890.528748483
 20
-1607.168577511
 10
1889.6521910897
 20
-1617.6784202615
 10
1888.5262189349
 20
-1628.0140073427
 10
1887.1516037038
 20
-1638.1682552596
 10
1885.5292874888
 20
-1648.134204798
 10
1883.6603821446
 20
-1657.9050257936
 10
1881.5461685254
 20
-1667.4740218141
 10
1879.1880956078
 20
-1676.8346347473
 10
1876.587779497
 20
-1685.9804492969
 10
1873.7470023199
 20
-1694.9051973783
 10
1870.6677110032
 20
-1703.6027624151
 10
1867.3520159395
 20
-1712.0671835305
 10
1863.8021895403
 20
-1720.2926596333
 10
1860.0206646796
 20
-1728.2735533928
 10
1856.0100330254
 20
-1736.0043951033
 10
1851.7730432645
 20
-1743.4798864319
 10
1847.3125992179
 20
-1750.6949040503
 10
1842.6317578511
 20
-1757.6445031459
 10
1837.7337271792
 20
-1764.3239208105
 10
1832.6218640675
 20
-1770.7285793049
 10
1827.2996719318
 20
-1776.8540891962
 10
1821.7707983367
 20
-1782.6962523658
 10
1816.039032496
 20
-1788.2510648868
 10
1810.1083026756
 20
-1793.5147197684
 10
1803.9826735016
 20
-1798.4836095642
 10
1797.6663431742
 20
-1803.1543288456
 10
1791.1636405907
 20
-1807.5236765347
 10
1784.4790223786
 20
-1811.588658099
 10
1784.4579944482
 20
-1811.6007992378
  0
ENDSEC
  0
SECTION
  2
OBJECTS
  0
DICTIONARY
  5
C
330
0
100
AcDbDictionary
281
     1
  3
ACAD_GROUP
350
D
  3
ACAD_LAYOUT
350
1A
  3
ACAD_MLINESTYLE
350
17
  3
ACAD_PLOTSETTINGS
350
19
  3
ACAD_PLOTSTYLENAME
350
E
  3
ACAD_SCALELIST
350
47
  3
DWGPROPS
350
12B
  0
DICTIONARY
  5
D
102
{ACAD_REACTORS
330
C
102
}
330
C
100
AcDbDictionary
281
     1
  0
DICTIONARY
  5
1A
102
{ACAD_REACTORS
330
C
102
}
330
C
100
AcDbDictionary
281
     1
  3
Layout1
350
1E
  3
Layout2
350
26
  3
Model
350
22
  0
DICTIONARY
  5
17
102
{ACAD_REACTORS
330
C
102
}
330
C
100
AcDbDictionary
281
     1
  3
Standard
350
18
  0
DICTIONARY
  5
19
102
{ACAD_REACTORS
330
C
102
}
330
C
100
AcDbDictionary
281
     1
  0
ACDBDICTIONARYWDFLT
  5
E
102
{ACAD_REACTORS
330
C
102
}
330
C
100
AcDbDictionary
281
     1
  3
Normal
350
F
100
AcDbDictionaryWithDefault
340
F
  0
DICTIONARY
  5
47
102
{ACAD_REACTORS
330
C
102
}
330
C
100
AcDbDictionary
281
     1
  3
A0
350
48
  3
A1
350
49
  3
A2
350
4A
  3
A3
350
4B
  3
A4
350
4C
  3
A5
350
4D
  3
A6
350
4E
  3
A7
350
4F
  3
A8
350
50
  3
A9
350
51
  3
B0
350
52
  3
B1
350
53
  3
B2
350
54
  3
B3
350
55
  3
B4
350
56
  3
B5
350
57
  3
B6
350
58
  3
B7
350
59
  3
B8
350
5A
  3
B9
350
5B
  3
C0
350
5C
  3
C1
350
5D
  3
C2
350
5E
  3
C3
350
5F
  3
C4
350
60
  3
C5
350
61
  3
C6
350
62
  3
C7
350
63
  3
C8
350
64
  3
C9
350
65
  3
D0
350
66
  3
D1
350
67
  3
D2
350
68
  0
XRECORD
  5
12B
102
{ACAD_REACTORS
330
C
102
}
330
C
100
AcDbXrecord
280
     1
  1
DWGPROPS COOKIE
  2

  3

  4

  6

  7

  8
b.kav
  9

300
=
301
=
302
=
303
=
304
=
305
=
306
=
307
=
308
=
309
=
 40
0.0
 41
2459741.476760289
 42
2459741.476760474
  1

 90
        0
  0
LAYOUT
  5
1E
102
{ACAD_REACTORS
330
1A
102
}
330
1A
100
AcDbPlotSettings
  1

  2
none_device
  4

  6

 40
0.0
 41
0.0
 42
0.0
 43
0.0
 44
0.0
 45
0.0
 46
0.0
 47
0.0
 48
0.0
 49
0.0
140
0.0
141
0.0
142
1.0
143
1.0
 70
   688
 72
     1
 73
     0
 74
     5
  7

 75
    16
147
1.0
148
0.0
149
0.0
100
AcDbLayout
  1
Layout1
 70
     1
 71
     1
 10
0.0
 20
0.0
 11
420.0
 21
297.0
 12
0.0
 22
0.0
 32
0.0
 14
1.0000000000E+20
 24
1.0000000000E+20
 34
1.0000000000E+20
 15
-1.0000000000E+20
 25
-1.0000000000E+20
 35
-1.0000000000E+20
146
0.0
 13
0.0
 23
0.0
 33
0.0
 16
1.0
 26
0.0
 36
0.0
 17
0.0
 27
1.0
 37
0.0
 76
     0
330
1B
  0
LAYOUT
  5
26
102
{ACAD_REACTORS
330
1A
102
}
330
1A
100
AcDbPlotSettings
  1

  2
none_device
  4

  6

 40
0.0
 41
0.0
 42
0.0
 43
0.0
 44
0.0
 45
0.0
 46
0.0
 47
0.0
 48
0.0
 49
0.0
140
0.0
141
0.0
142
1.0
143
1.0
 70
   688
 72
     1
 73
     0
 74
     5
  7

 75
    16
147
1.0
148
0.0
149
0.0
100
AcDbLayout
  1
Layout2
 70
     1
 71
     2
 10
0.0
 20
0.0
 11
0.0
 21
0.0
 12
0.0
 22
0.0
 32
0.0
 14
0.0
 24
0.0
 34
0.0
 15
0.0
 25
0.0
 35
0.0
146
0.0
 13
0.0
 23
0.0
 33
0.0
 16
1.0
 26
0.0
 36
0.0
 17
0.0
 27
1.0
 37
0.0
 76
     0
330
23
  0
LAYOUT
  5
22
102
{ACAD_REACTORS
330
1A
102
}
330
1A
100
AcDbPlotSettings
  1

  2
none_device
  4
Letter_(8.50_x_11.00_Inches)
  6

 40
6.35
 41
6.35
 42
6.35000508
 43
6.35000508
 44
215.9
 45
279.4
 46
0.0
 47
0.0
 48
0.0
 49
0.0
140
0.0
141
0.0
142
1.0
143
1.0
 70
  1712
 72
     1
 73
     0
 74
     0
  7

 75
     0
147
1.0
148
0.0
149
0.0
100
AcDbLayout
  1
Model
 70
     1
 71
     0
 10
0.0
 20
0.0
 11
279.4
 21
215.9
 12
0.0
 22
0.0
 32
0.0
 14
0.0
 24
0.0
 34
0.0
 15
279.4
 25
215.9
 35
0.0
146
0.0
 13
0.0
 23
0.0
 33
0.0
 16
1.0
 26
0.0
 36
0.0
 17
0.0
 27
1.0
 37
0.0
 76
     0
330
1F
331
29
  0
MLINESTYLE
  5
18
102
{ACAD_REACTORS
330
17
102
}
330
17
100
AcDbMlineStyle
  2
Standard
 70
     0
  3

 62
   256
 51
90.0
 52
90.0
 71
     2
 49
0.5
 62
   256
  6
BYLAYER
 49
-0.5
 62
   256
  6
BYLAYER
  0
ACDBPLACEHOLDER
  5
F
102
{ACAD_REACTORS
330
E
102
}
330
E
  0
SCALE
  5
48
102
{ACAD_REACTORS
330
47
102
}
330
47
100
AcDbScale
 70
     0
300
1:1
140
1.0
141
1.0
290
     1
  0
SCALE
  5
49
102
{ACAD_REACTORS
330
47
102
}
330
47
100
AcDbScale
 70
     0
300
1:2
140
1.0
141
2.0
290
     0
  0
SCALE
  5
4A
102
{ACAD_REACTORS
330
47
102
}
330
47
100
AcDbScale
 70
     0
300
1:4
140
1.0
141
4.0
290
     0
  0
SCALE
  5
4B
102
{ACAD_REACTORS
330
47
102
}
330
47
100
AcDbScale
 70
     0
300
1:5
140
1.0
141
5.0
290
     0
  0
SCALE
  5
4C
102
{ACAD_REACTORS
330
47
102
}
330
47
100
AcDbScale
 70
     0
300
1:8
140
1.0
141
8.0
290
     0
  0
SCALE
  5
4D
102
{ACAD_REACTORS
330
47
102
}
330
47
100
AcDbScale
 70
     0
300
1:10
140
1.0
141
10.0
290
     0
  0
SCALE
  5
4E
102
{ACAD_REACTORS
330
47
102
}
330
47
100
AcDbScale
 70
     0
300
1:16
140
1.0
141
16.0
290
     0
  0
SCALE
  5
4F
102
{ACAD_REACTORS
330
47
102
}
330
47
100
AcDbScale
 70
     0
300
1:20
140
1.0
141
20.0
290
     0
  0
SCALE
  5
50
102
{ACAD_REACTORS
330
47
102
}
330
47
100
AcDbScale
 70
     0
300
1:30
140
1.0
141
30.0
290
     0
  0
SCALE
  5
51
102
{ACAD_REACTORS
330
47
102
}
330
47
100
AcDbScale
 70
     0
300
1:40
140
1.0
141
40.0
290
     0
  0
SCALE
  5
52
102
{ACAD_REACTORS
330
47
102
}
330
47
100
AcDbScale
 70
     0
300
1:50
140
1.0
141
50.0
290
     0
  0
SCALE
  5
53
102
{ACAD_REACTORS
330
47
102
}
330
47
100
AcDbScale
 70
     0
300
1:100
140
1.0
141
100.0
290
     0
  0
SCALE
  5
54
102
{ACAD_REACTORS
330
47
102
}
330
47
100
AcDbScale
 70
     0
300
2:1
140
2.0
141
1.0
290
     0
  0
SCALE
  5
55
102
{ACAD_REACTORS
330
47
102
}
330
47
100
AcDbScale
 70
     0
300
4:1
140
4.0
141
1.0
290
     0
  0
SCALE
  5
56
102
{ACAD_REACTORS
330
47
102
}
330
47
100
AcDbScale
 70
     0
300
8:1
140
8.0
141
1.0
290
     0
  0
SCALE
  5
57
102
{ACAD_REACTORS
330
47
102
}
330
47
100
AcDbScale
 70
     0
300
10:1
140
10.0
141
1.0
290
     0
  0
SCALE
  5
58
102
{ACAD_REACTORS
330
47
102
}
330
47
100
AcDbScale
 70
     0
300
100:1
140
100.0
141
1.0
290
     0
  0
SCALE
  5
59
102
{ACAD_REACTORS
330
47
102
}
330
47
100
AcDbScale
 70
     0
300
1/128" = 1'-0"
140
0.0078125
141
12.0
290
     0
  0
SCALE
  5
5A
102
{ACAD_REACTORS
330
47
102
}
330
47
100
AcDbScale
 70
     0
300
1/64" = 1'-0"
140
0.015625
141
12.0
290
     0
  0
SCALE
  5
5B
102
{ACAD_REACTORS
330
47
102
}
330
47
100
AcDbScale
 70
     0
300
1/32" = 1'-0"
140
0.03125
141
12.0
290
     0
  0
SCALE
  5
5C
102
{ACAD_REACTORS
330
47
102
}
330
47
100
AcDbScale
 70
     0
300
1/16" = 1'-0"
140
0.0625
141
12.0
290
     0
  0
SCALE
  5
5D
102
{ACAD_REACTORS
330
47
102
}
330
47
100
AcDbScale
 70
     0
300
3/32" = 1'-0"
140
0.09375
141
12.0
290
     0
  0
SCALE
  5
5E
102
{ACAD_REACTORS
330
47
102
}
330
47
100
AcDbScale
 70
     0
300
1/8" = 1'-0"
140
0.125
141
12.0
290
     0
  0
SCALE
  5
5F
102
{ACAD_REACTORS
330
47
102
}
330
47
100
AcDbScale
 70
     0
300
3/16" = 1'-0"
140
0.1875
141
12.0
290
     0
  0
SCALE
  5
60
102
{ACAD_REACTORS
330
47
102
}
330
47
100
AcDbScale
 70
     0
300
1/4" = 1'-0"
140
0.25
141
12.0
290
     0
  0
SCALE
  5
61
102
{ACAD_REACTORS
330
47
102
}
330
47
100
AcDbScale
 70
     0
300
3/8" = 1'-0"
140
0.375
141
12.0
290
     0
  0
SCALE
  5
62
102
{ACAD_REACTORS
330
47
102
}
330
47
100
AcDbScale
 70
     0
300
1/2" = 1'-0"
140
0.5
141
12.0
290
     0
  0
SCALE
  5
63
102
{ACAD_REACTORS
330
47
102
}
330
47
100
AcDbScale
 70
     0
300
3/4" = 1'-0"
140
0.75
141
12.0
290
     0
  0
SCALE
  5
64
102
{ACAD_REACTORS
330
47
102
}
330
47
100
AcDbScale
 70
     0
300
1" = 1'-0"
140
1.0
141
12.0
290
     0
  0
SCALE
  5
65
102
{ACAD_REACTORS
330
47
102
}
330
47
100
AcDbScale
 70
     0
300
1-1/2" = 1'-0"
140
1.5
141
12.0
290
     0
  0
SCALE
  5
66
102
{ACAD_REACTORS
330
47
102
}
330
47
100
AcDbScale
 70
     0
300
3" = 1'-0"
140
3.0
141
12.0
290
     0
  0
SCALE
  5
67
102
{ACAD_REACTORS
330
47
102
}
330
47
100
AcDbScale
 70
     0
300
6" = 1'-0"
140
6.0
141
12.0
290
     0
  0
SCALE
  5
68
102
{ACAD_REACTORS
330
47
102
}
330
47
100
AcDbScale
 70
     0
300
1'-0" = 1'-0"
140
12.0
141
12.0
290
     0
  0
ENDSEC
  0
EOF
